  0
SECTION
  2
HEADER
  9
$ACADVER
  1
AC1015
  9
$ACADMAINTVER
 70
     6
  9
$DWGCODEPAGE
  3
ANSI_1252
  9
$INSBASE
 10
0.0
 20
0.0
 30
0.0
  9
$EXTMIN
 10
0.0
 20
0.0
 30
0.0
  9
$EXTMAX
 10
841.0
 20
594.0
 30
0.0
  9
$LIMMIN
 10
0.0
 20
0.0
  9
$LIMMAX
 10
841.0
 20
594.0
  9
$ORTHOMODE
 70
     0
  9
$REGENMODE
 70
     1
  9
$FILLMODE
 70
     1
  9
$QTEXTMODE
 70
     0
  9
$MIRRTEXT
 70
     1
  9
$LTSCALE
 40
1.0
  9
$ATTMODE
 70
     1
  9
$TEXTSIZE
 40
3.5
  9
$TRACEWID
 40
1.0
  9
$TEXTSTYLE
  7
Standard
  9
$CLAYER
  8
0
  9
$CELTYPE
  6
ByLayer
  9
$CECOLOR
 62
   256
  9
$CELTSCALE
 40
1.0
  9
$DISPSILH
 70
     0
  9
$DIMSCALE
 40
1.0
  9
$DIMASZ
 40
6.0
  9
$DIMEXO
 40
1.0
  9
$DIMDLI
 40
3.75
  9
$DIMRND
 40
0.0
  9
$DIMDLE
 40
0.0
  9
$DIMEXE
 40
1.0
  9
$DIMTP
 40
0.0
  9
$DIMTM
 40
0.0
  9
$DIMTXT
 40
3.5
  9
$DIMCEN
 40
2.5
  9
$DIMTSZ
 40
0.0
  9
$DIMTOL
 70
     0
  9
$DIMLIM
 70
     0
  9
$DIMTIH
 70
     1
  9
$DIMTOH
 70
     1
  9
$DIMSE1
 70
     0
  9
$DIMSE2
 70
     0
  9
$DIMTAD
 70
     1
  9
$DIMZIN
 70
     0
  9
$DIMBLK
  1

  9
$DIMASO
 70
     1
  9
$DIMSHO
 70
     1
  9
$DIMPOST
  1

  9
$DIMAPOST
  1

  9
$DIMALT
 70
     0
  9
$DIMALTD
 70
     3
  9
$DIMALTF
 40
0.0393700787
  9
$DIMLFAC
 40
1.0
  9
$DIMTOFL
 70
     1
  9
$DIMTVP
 40
0.0
  9
$DIMTIX
 70
     0
  9
$DIMSOXD
 70
     0
  9
$DIMSAH
 70
     0
  9
$DIMBLK1
  1

  9
$DIMBLK2
  1

  9
$DIMSTYLE
  2
ISO-25
  9
$DIMCLRD
 70
     0
  9
$DIMCLRE
 70
     0
  9
$DIMCLRT
 70
     0
  9
$DIMTFAC
 40
1.0
  9
$DIMGAP
 40
1.524
  9
$DIMJUST
 70
     0
  9
$DIMSD1
 70
     0
  9
$DIMSD2
 70
     0
  9
$DIMTOLJ
 70
     0
  9
$DIMTZIN
 70
     0
  9
$DIMALTZ
 70
     0
  9
$DIMALTTZ
 70
     0
  9
$DIMUPT
 70
     0
  9
$DIMDEC
 70
     3
  9
$DIMTDEC
 70
     3
  9
$DIMALTU
 70
     2
  9
$DIMALTTD
 70
     3
  9
$DIMTXSTY
  7
Standard
  9
$DIMAUNIT
 70
     0
  9
$DIMADEC
 70
     2
  9
$DIMALTRND
 40
0.0
  9
$DIMAZIN
 70
     0
  9
$DIMDSEP
 70
    44
  9
$DIMATFIT
 70
     3
  9
$DIMFRAC
 70
     0
  9
$DIMLDRBLK
  1

  9
$DIMLUNIT
 70
     2
  9
$DIMLWD
 70
    -2
  9
$DIMLWE
 70
    -2
  9
$DIMTMOVE
 70
     0
  9
$LUNITS
 70
     2
  9
$LUPREC
 70
     2
  9
$SKETCHINC
 40
1.0
  9
$FILLETRAD
 40
10.0
  9
$AUNITS
 70
     0
  9
$AUPREC
 70
     2
  9
$MENU
  1
.
  9
$ELEVATION
 40
0.0
  9
$PELEVATION
 40
0.0
  9
$THICKNESS
 40
0.0
  9
$LIMCHECK
 70
     0
  9
$CHAMFERA
 40
10.0
  9
$CHAMFERB
 40
10.0
  9
$CHAMFERC
 40
20.0
  9
$CHAMFERD
 40
0.0
  9
$SKPOLY
 70
     0
  9
$TDCREATE
 40
2455413.435634664
  9
$TDUCREATE
 40
2455413.352301331
  9
$TDUPDATE
 40
2455413.435634676
  9
$TDUUPDATE
 40
2455413.352301342
  9
$TDINDWG
 40
0.0000000116
  9
$TDUSRTIMER
 40
0.0000000116
  9
$USRTIMER
 70
     1
  9
$ANGBASE
 50
0.0
  9
$ANGDIR
 70
     0
  9
$PDMODE
 70
     0
  9
$PDSIZE
 40
-1.0
  9
$PLINEWID
 40
0.0
  9
$SPLFRAME
 70
     0
  9
$SPLINETYPE
 70
     6
  9
$SPLINESEGS
 70
     8
  9
$HANDSEED
  5
3E7
  9
$SURFTAB1
 70
     6
  9
$SURFTAB2
 70
     6
  9
$SURFTYPE
 70
     6
  9
$SURFU
 70
     6
  9
$SURFV
 70
     6
  9
$UCSBASE
  2

  9
$UCSNAME
  2

  9
$UCSORG
 10
0.0
 20
0.0
 30
0.0
  9
$UCSXDIR
 10
1.0
 20
0.0
 30
0.0
  9
$UCSYDIR
 10
0.0
 20
1.0
 30
0.0
  9
$UCSORTHOREF
  2

  9
$UCSORTHOVIEW
 70
     0
  9
$UCSORGTOP
 10
0.0
 20
0.0
 30
0.0
  9
$UCSORGBOTTOM
 10
0.0
 20
0.0
 30
0.0
  9
$UCSORGLEFT
 10
0.0
 20
0.0
 30
0.0
  9
$UCSORGRIGHT
 10
0.0
 20
0.0
 30
0.0
  9
$UCSORGFRONT
 10
0.0
 20
0.0
 30
0.0
  9
$UCSORGBACK
 10
0.0
 20
0.0
 30
0.0
  9
$PUCSBASE
  2

  9
$PUCSNAME
  2

  9
$PUCSORG
 10
0.0
 20
0.0
 30
0.0
  9
$PUCSXDIR
 10
1.0
 20
0.0
 30
0.0
  9
$PUCSYDIR
 10
0.0
 20
1.0
 30
0.0
  9
$PUCSORTHOREF
  2

  9
$PUCSORTHOVIEW
 70
     0
  9
$PUCSORGTOP
 10
0.0
 20
0.0
 30
0.0
  9
$PUCSORGBOTTOM
 10
0.0
 20
0.0
 30
0.0
  9
$PUCSORGLEFT
 10
0.0
 20
0.0
 30
0.0
  9
$PUCSORGRIGHT
 10
0.0
 20
0.0
 30
0.0
  9
$PUCSORGFRONT
 10
0.0
 20
0.0
 30
0.0
  9
$PUCSORGBACK
 10
0.0
 20
0.0
 30
0.0
  9
$USERI1
 70
     0
  9
$USERI2
 70
     0
  9
$USERI3
 70
     0
  9
$USERI4
 70
     0
  9
$USERI5
 70
     0
  9
$USERR1
 40
0.0
  9
$USERR2
 40
0.0
  9
$USERR3
 40
0.0
  9
$USERR4
 40
0.0
  9
$USERR5
 40
0.0
  9
$WORLDVIEW
 70
     1
  9
$SHADEDGE
 70
     3
  9
$SHADEDIF
 70
    70
  9
$TILEMODE
 70
     1
  9
$MAXACTVP
 70
    64
  9
$PINSBASE
 10
0.0
 20
0.0
 30
0.0
  9
$PLIMCHECK
 70
     0
  9
$PEXTMIN
 10
1.0000000000E+20
 20
1.0000000000E+20
 30
1.0000000000E+20
  9
$PEXTMAX
 10
-1.0000000000E+20
 20
-1.0000000000E+20
 30
-1.0000000000E+20
  9
$PLIMMIN
 10
0.0
 20
0.0
  9
$PLIMMAX
 10
420.0
 20
297.0
  9
$UNITMODE
 70
     0
  9
$VISRETAIN
 70
     1
  9
$PLINEGEN
 70
     0
  9
$PSLTSCALE
 70
     1
  9
$TREEDEPTH
 70
  3020
  9
$CMLSTYLE
  2
Standard
  9
$CMLJUST
 70
     0
  9
$CMLSCALE
 40
20.0
  9
$PROXYGRAPHICS
 70
     1
  9
$MEASUREMENT
 70
     1
  9
$CELWEIGHT
370
    -1
  9
$ENDCAPS
280
     0
  9
$JOINSTYLE
280
     0
  9
$LWDISPLAY
290
     1
  9
$INSUNITS
 70
     4
  9
$HYPERLINKBASE
  1

  9
$STYLESHEET
  1

  9
$XEDIT
290
     1
  9
$CEPSNTYPE
380
     0
  9
$PSTYLEMODE
290
     1
  9
$FINGERPRINTGUID
  2
{E421A0F3-3859-4438-82CA-ACE2D4E7CB6C}
  9
$VERSIONGUID
  2
{FAEB1C32-E019-11D5-929B-00C0DF256EC4}
  9
$EXTNAMES
290
     1
  9
$PSVPSCALE
 40
0.0
  9
$OLESTARTUP
290
     0
  0
ENDSEC
  0
SECTION
  2
CLASSES
  0
CLASS
  1
ACDBDICTIONARYWDFLT
  2
AcDbDictionaryWithDefault
  3
ObjectDBX Classes
 90
        0
280
     0
281
     0
  0
CLASS
  1
VISUALSTYLE
  2
AcDbVisualStyle
  3
ObjectDBX Classes
 90
     4095
280
     0
281
     0
  0
CLASS
  1
DICTIONARYVAR
  2
AcDbDictionaryVar
  3
ObjectDBX Classes
 90
        0
280
     0
281
     0
  0
CLASS
  1
ACDBPLACEHOLDER
  2
AcDbPlaceHolder
  3
ObjectDBX Classes
 90
        0
280
     0
281
     0
  0
CLASS
  1
LAYOUT
  2
AcDbLayout
  3
ObjectDBX Classes
 90
        0
280
     0
281
     0
  0
ENDSEC
  0
SECTION
  2
TABLES
  0
TABLE
  2
VPORT
  5
8
330
0
100
AcDbSymbolTable
 70
     1
  0
VPORT
  5
29
330
8
100
AcDbSymbolTableRecord
100
AcDbViewportTableRecord
  2
*Active
 70
     0
 10
0.0
 20
0.0
 11
1.0
 21
1.0
 12
420.5
 22
297.0
 13
0.0
 23
0.0
 14
10.0
 24
10.0
 15
10.0
 25
10.0
 16
0.0
 26
0.0
 36
1.0
 17
0.0
 27
0.0
 37
0.0
 40
594.0
 41
1.4158249158
 42
50.0
 43
0.0
 44
0.0
 50
0.0
 51
0.0
 71
     0
 72
  2000
 73
     1
 74
     3
 75
     0
 76
     0
 77
     0
 78
     0
281
     0
 65
     1
110
0.0
120
0.0
130
0.0
111
1.0
121
0.0
131
0.0
112
0.0
122
1.0
132
0.0
 79
     0
146
0.0
  0
ENDTAB
  0
TABLE
  2
LTYPE
  5
5
330
0
100
AcDbSymbolTable
 70
     6
  0
LTYPE
  5
14
330
5
100
AcDbSymbolTableRecord
100
AcDbLinetypeTableRecord
  2
ByBlock
 70
     0
  3

 72
    65
 73
     0
 40
0.0
  0
LTYPE
  5
15
330
5
100
AcDbSymbolTableRecord
100
AcDbLinetypeTableRecord
  2
ByLayer
 70
     0
  3

 72
    65
 73
     0
 40
0.0
  0
LTYPE
  5
16
330
5
100
AcDbSymbolTableRecord
100
AcDbLinetypeTableRecord
  2
Continuous
 70
     0
  3
Solid line
 72
    65
 73
     0
 40
0.0
  0
LTYPE
  5
3B
330
5
100
AcDbSymbolTableRecord
100
AcDbLinetypeTableRecord
  2
HIDDEN
 70
     0
  3
Hidden __ __ __ __ __ __ __ __ __ __ __ __ __ __
 72
    65
 73
     2
 40
1.905
 49
1.27
 74
     0
 49
-0.635
 74
     0
  0
LTYPE
  5
3C
330
5
100
AcDbSymbolTableRecord
100
AcDbLinetypeTableRecord
  2
PHANTOM
 70
     0
  3
Phantom ______  __  __  ______  __  __  ______
 72
    65
 73
     6
 40
12.7
 49
6.35
 74
     0
 49
-1.27
 74
     0
 49
1.27
 74
     0
 49
-1.27
 74
     0
 49
1.27
 74
     0
 49
-1.27
 74
     0
  0
LTYPE
  5
3D
330
5
100
AcDbSymbolTableRecord
100
AcDbLinetypeTableRecord
  2
CENTER
 70
     0
  3
Center ____ _ ____ _ ____ _ ____ _ ____ _ ____
 72
    65
 73
     4
 40
10.16
 49
6.35
 74
     0
 49
-1.27
 74
     0
 49
1.27
 74
     0
 49
-1.27
 74
     0
  0
LTYPE
  5
3E
330
5
100
AcDbSymbolTableRecord
100
AcDbLinetypeTableRecord
  2
CENTERX2
 70
     0
  3
Center (2x) ________  __  ________  __  _____
 72
    65
 73
     4
 40
20.32
 49
12.7
 74
     0
 49
-2.54
 74
     0
 49
2.54
 74
     0
 49
-2.54
 74
     0
  0
LTYPE
  5
3F
330
5
100
AcDbSymbolTableRecord
100
AcDbLinetypeTableRecord
  2
DOT2
 70
     0
  3
Dot (.5x) ........................................
 72
    65
 73
     2
 40
0.635
 49
0.0
 74
     0
 49
-0.635
 74
     0
  0
ENDTAB
  0
TABLE
  2
LAYER
  5
2
330
0
100
AcDbSymbolTable
 70
     1
  0
LAYER
  5
10
330
2
100
AcDbSymbolTableRecord
100
AcDbLayerTableRecord
  2
0
 70
     0
 62
     7
  6
Continuous
370
    -3
390
F
  0
ENDTAB
  0
TABLE
  2
STYLE
  5
3
330
0
100
AcDbSymbolTable
 70
     1
  0
STYLE
  5
11
330
3
100
AcDbSymbolTableRecord
100
AcDbTextStyleTableRecord
  2
Standard
 70
     0
 40
0.0
 41
1.0
 50
0.0
 71
     0
 42
2.5
  3
txt
  4

  0
ENDTAB
  0
TABLE
  2
VIEW
  5
6
330
0
100
AcDbSymbolTable
 70
     0
  0
ENDTAB
  0
TABLE
  2
UCS
  5
7
330
0
100
AcDbSymbolTable
 70
     0
  0
ENDTAB
  0
TABLE
  2
APPID
  5
9
330
0
100
AcDbSymbolTable
 70
     1
  0
APPID
  5
12
330
9
100
AcDbSymbolTableRecord
100
AcDbRegAppTableRecord
  2
ACAD
 70
     0
  0
ENDTAB
  0
TABLE
  2
DIMSTYLE
  5
A
330
0
100
AcDbSymbolTable
 70
     1
100
AcDbDimStyleTable
  0
DIMSTYLE
105
27
330
A
100
AcDbSymbolTableRecord
100
AcDbDimStyleTableRecord
  2
ISO-25
 70
     0
 41
2.5
 42
0.625
 43
3.75
 44
1.25
 73
     0
 74
     0
 77
     1
 78
     8
140
2.5
141
2.5
143
0.0393700787
147
0.625
171
     3
172
     1
271
     2
272
     2
274
     3
278
    44
283
     0
284
     8
340
11
  0
ENDTAB
  0
TABLE
  2
BLOCK_RECORD
  5
1
330
0
100
AcDbSymbolTable
 70
     1
  0
BLOCK_RECORD
  5
1F
330
1
100
AcDbSymbolTableRecord
100
AcDbBlockTableRecord
  2
*Model_Space
340
22
  0
BLOCK_RECORD
  5
1B
330
1
100
AcDbSymbolTableRecord
100
AcDbBlockTableRecord
  2
*Paper_Space
340
1E
  0
BLOCK_RECORD
  5
23
330
1
100
AcDbSymbolTableRecord
100
AcDbBlockTableRecord
  2
*Paper_Space0
340
26
  0
ENDTAB
  0
ENDSEC
  0
SECTION
  2
BLOCKS
  0
BLOCK
  5
20
330
1F
100
AcDbEntity
  8
0
100
AcDbBlockBegin
  2
*Model_Space
 70
     0
 10
0.0
 20
0.0
 30
0.0
  3
*Model_Space
  1

  0
ENDBLK
  5
21
330
1F
100
AcDbEntity
  8
0
100
AcDbBlockEnd
  0
BLOCK
  5
1C
330
1B
100
AcDbEntity
 67
     1
  8
0
100
AcDbBlockBegin
  2
*Paper_Space
 70
     0
 10
0.0
 20
0.0
 30
0.0
  3
*Paper_Space
  1

  0
ENDBLK
  5
1D
330
1B
100
AcDbEntity
 67
     1
  8
0
100
AcDbBlockEnd
  0
BLOCK
  5
24
330
23
100
AcDbEntity
  8
0
100
AcDbBlockBegin
  2
*Paper_Space0
 70
     0
 10
0.0
 20
0.0
 30
0.0
  3
*Paper_Space0
  1

  0
ENDBLK
  5
25
330
23
100
AcDbEntity
  8
0
100
AcDbBlockEnd
  0
ENDSEC
  0
SECTION
  2
ENTITIES
  0
LINE
  5
40
330
1F
100
AcDbEntity
  8
0
  6
CENTERX2
 62
     7
100
AcDbLine
 10
-92.0256097561
 20
1474.970886956
 30
0.0
 11
-92.0105945072
 21
1261.6879169485
 31
0.0
  0
LINE
  5
41
330
1F
100
AcDbEntity
  8
0
  6
CENTERX2
 62
     7
100
AcDbLine
 10
-792.0256097561
 20
1474.970886956
 30
0.0
 11
-792.0105945072
 21
1261.6879169485
 31
0.0
  0
LINE
  5
42
330
1F
100
AcDbEntity
  8
0
  6
Continuous
 62
     7
370
    15
100
AcDbLine
 10
1409.9744360203
 20
1448.8708883627
 30
0.0
 11
1361.5869085544
 21
1448.8708883627
 31
0.0
  0
LINE
  5
43
330
1F
100
AcDbEntity
  8
0
  6
Continuous
 62
     7
370
    15
100
AcDbLine
 10
1330.3619425053
 20
1448.8708883627
 30
0.0
 11
-77.0256121403
 21
1448.8708883627
 31
0.0
  0
LINE
  5
44
330
1F
100
AcDbEntity
  8
0
  6
Continuous
 62
     7
370
    15
100
AcDbLine
 10
-107.0255835301
 20
1448.8708883627
 30
0.0
 11
-777.0256076699
 21
1448.8708883627
 31
0.0
  0
LINE
  5
45
330
1F
100
AcDbEntity
  8
0
  6
Continuous
 62
     7
370
    15
100
AcDbLine
 10
-807.025608862
 20
1448.8708883627
 30
0.0
 11
-810.413112188
 21
1448.8708883627
 31
0.0
  0
LINE
  5
46
330
1F
100
AcDbEntity
  8
0
  6
Continuous
 62
     7
370
    15
100
AcDbLine
 10
-841.6381043142
 20
1448.8708883627
 30
0.0
 11
-890.0256096611
 21
1448.8708883627
 31
0.0
  0
LINE
  5
47
330
1F
100
AcDbEntity
  8
0
  6
Continuous
 62
     7
370
    15
100
AcDbLine
 10
-890.0256096611
 20
1423.8708861275
 30
0.0
 11
-841.6381043142
 21
1423.8708861275
 31
0.0
  0
LINE
  5
48
330
1F
100
AcDbEntity
  8
0
  6
Continuous
 62
     7
370
    15
100
AcDbLine
 10
-810.413112188
 20
1423.8708861275
 30
0.0
 11
-807.025608862
 21
1423.8708861275
 31
0.0
  0
LINE
  5
49
330
1F
100
AcDbEntity
  8
0
  6
Continuous
 62
     7
370
    15
100
AcDbLine
 10
-777.0256076699
 20
1423.8708861275
 30
0.0
 11
-107.0255835301
 21
1423.8708861275
 31
0.0
  0
LINE
  5
4A
330
1F
100
AcDbEntity
  8
0
  6
Continuous
 62
     7
370
    15
100
AcDbLine
 10
-77.0256121403
 20
1423.8708861275
 30
0.0
 11
1330.3619425053
 21
1423.8708861275
 31
0.0
  0
LINE
  5
4B
330
1F
100
AcDbEntity
  8
0
  6
Continuous
 62
     7
370
    15
100
AcDbLine
 10
1361.5869085544
 20
1423.8708861275
 30
0.0
 11
1409.9744360203
 21
1423.8708861275
 31
0.0
  0
LINE
  5
4C
330
1F
100
AcDbEntity
  8
0
  6
Continuous
 62
     7
370
    15
100
AcDbLine
 10
1411.7744962925
 20
1423.8708861275
 30
0.0
 11
1411.9742910618
 21
1424.0708876504
 31
0.0
  0
LINE
  5
4D
330
1F
100
AcDbEntity
  8
0
  6
Continuous
 62
     7
370
    15
100
AcDbLine
 10
1411.9742910618
 20
1448.6708887025
 30
0.0
 11
1411.7744962925
 21
1448.8708883627
 31
0.0
  0
LINE
  5
4E
330
1F
100
AcDbEntity
  8
0
  6
Continuous
 62
     7
370
    15
100
AcDbLine
 10
1411.7744962925
 20
1448.8708883627
 30
0.0
 11
1410.1744692081
 21
1448.8708883627
 31
0.0
  0
LINE
  5
4F
330
1F
100
AcDbEntity
  8
0
  6
Continuous
 62
     7
370
    15
100
AcDbLine
 10
1410.1744692081
 20
1423.8708861275
 30
0.0
 11
1411.7744962925
 21
1423.8708861275
 31
0.0
  0
LINE
  5
50
330
1F
100
AcDbEntity
  8
0
  6
Continuous
 62
     7
370
    15
100
AcDbLine
 10
1410.1744692081
 20
1448.8708883627
 30
0.0
 11
1409.9744360203
 21
1448.6708887025
 31
0.0
  0
LINE
  5
51
330
1F
100
AcDbEntity
  8
0
  6
Continuous
 62
     7
370
    15
100
AcDbLine
 10
1409.9744360203
 20
1424.0708876504
 30
0.0
 11
1410.1744692081
 21
1423.8708861275
 31
0.0
  0
LINE
  5
52
330
1F
100
AcDbEntity
  8
0
  6
Continuous
 62
     7
370
    15
100
AcDbLine
 10
-891.8256097611
 20
1448.8708883627
 30
0.0
 11
-892.0256097561
 21
1448.6708887025
 31
0.0
  0
LINE
  5
53
330
1F
100
AcDbEntity
  8
0
  6
Continuous
 62
     7
370
    15
100
AcDbLine
 10
-892.0256097561
 20
1424.0708876504
 30
0.0
 11
-891.8256097611
 21
1423.8708861275
 31
0.0
  0
LINE
  5
54
330
1F
100
AcDbEntity
  8
0
  6
Continuous
 62
     7
370
    15
100
AcDbLine
 10
-890.225609787
 20
1423.8708861275
 30
0.0
 11
-890.0256096611
 21
1424.0708876504
 31
0.0
  0
LINE
  5
55
330
1F
100
AcDbEntity
  8
0
  6
Continuous
 62
     7
370
    15
100
AcDbLine
 10
-890.0256096611
 20
1448.6708887025
 30
0.0
 11
-890.225609787
 21
1448.8708883627
 31
0.0
  0
LINE
  5
56
330
1F
100
AcDbEntity
  8
0
  6
Continuous
 62
     7
370
    15
100
AcDbLine
 10
-891.8256097611
 20
1423.8708861275
 30
0.0
 11
-890.225609787
 21
1423.8708861275
 31
0.0
  0
LINE
  5
57
330
1F
100
AcDbEntity
  8
0
  6
Continuous
 62
     7
370
    15
100
AcDbLine
 10
-890.225609787
 20
1448.8708883627
 30
0.0
 11
-891.8256097611
 21
1448.8708883627
 31
0.0
  0
LINE
  5
58
330
1F
100
AcDbEntity
  8
0
  6
Continuous
 62
     7
370
    15
100
AcDbLine
 10
5.9743921513
 20
1395.970886956
 30
0.0
 11
-77.0256121403
 21
1395.970886956
 31
0.0
  0
LINE
  5
59
330
1F
100
AcDbEntity
  8
0
  6
Continuous
 62
     7
370
    15
100
AcDbLine
 10
-107.0255835301
 20
1395.970886956
 30
0.0
 11
-777.0256076699
 21
1395.970886956
 31
0.0
  0
LINE
  5
5A
330
1F
100
AcDbEntity
  8
0
  6
Continuous
 62
     7
370
    15
100
AcDbLine
 10
-807.025608862
 20
1395.970886956
 30
0.0
 11
-890.0256096611
 21
1395.970886956
 31
0.0
  0
ARC
  5
5B
330
1F
100
AcDbEntity
  8
0
  6
Continuous
 62
     7
370
    15
100
AcDbCircle
 10
5.9743902439
 20
1393.970886956
 30
0.0
 40
2.000000000000002
100
AcDbArc
 50
0.0
 51
90.0
  0
LINE
  5
5C
330
1F
100
AcDbEntity
  8
0
  6
Continuous
 62
     7
370
    15
100
AcDbLine
 10
7.974366402
 20
-652.0292103187
 30
0.0
 11
7.974366402
 21
1393.970886861
 31
0.0
  0
ARC
  5
5D
330
1F
100
AcDbEntity
  8
0
  6
Continuous
 62
     7
370
    15
100
AcDbCircle
 10
5.9743902439
 20
-652.029113044
 30
0.0
 40
2.000000000000002
100
AcDbArc
 50
270.0
 51
0.0
  0
LINE
  5
5E
330
1F
100
AcDbEntity
  8
0
  6
Continuous
 62
     7
370
    15
100
AcDbLine
 10
-890.0256096611
 20
-654.0290653602
 30
0.0
 11
-52.0256359821
 21
-654.0290653602
 31
0.0
  0
LINE
  5
5F
330
1F
100
AcDbEntity
  8
0
  6
Continuous
 62
     7
370
    15
100
AcDbLine
 10
-12.0256145245
 20
-654.0290653602
 30
0.0
 11
5.9743921513
 21
-654.0290653602
 31
0.0
  0
LINE
  5
60
330
1F
100
AcDbEntity
  8
0
  6
Continuous
 62
     7
370
    15
100
AcDbLine
 10
-892.0256097561
 20
1393.970886861
 30
0.0
 11
-892.0256097561
 21
-652.0292103187
 31
0.0
  0
ARC
  5
61
330
1F
100
AcDbEntity
  8
0
  6
Continuous
 62
     7
370
    15
100
AcDbCircle
 10
-890.0256097561
 20
-652.029113044
 30
0.0
 40
2.0
100
AcDbArc
 50
180.0
 51
270.0
  0
ARC
  5
62
330
1F
100
AcDbEntity
  8
0
  6
Continuous
 62
     7
370
    15
100
AcDbCircle
 10
-890.0256097561
 20
1393.970886956
 30
0.0
 40
2.0
100
AcDbArc
 50
90.0
 51
180.0
  0
LINE
  5
63
330
1F
100
AcDbEntity
  8
0
  6
Continuous
 62
     7
370
    15
100
AcDbLine
 10
1409.9744360203
 20
1436.3708853825
 30
0.0
 11
1409.9744360203
 21
1448.8708883627
 31
0.0
  0
LINE
  5
64
330
1F
100
AcDbEntity
  8
0
  6
Continuous
 62
     7
370
    15
100
AcDbLine
 10
1409.9744360203
 20
1423.8708861275
 30
0.0
 11
1409.9744360203
 21
1436.3708853825
 31
0.0
  0
LINE
  5
65
330
1F
100
AcDbEntity
  8
0
  6
Continuous
 62
     7
370
    15
100
AcDbLine
 10
-890.0256096611
 20
1436.3708853825
 30
0.0
 11
-890.0256096611
 21
1448.8708883627
 31
0.0
  0
LINE
  5
66
330
1F
100
AcDbEntity
  8
0
  6
Continuous
 62
     7
370
    15
100
AcDbLine
 10
-890.0256096611
 20
1423.8708861275
 30
0.0
 11
-890.0256096611
 21
1436.3708853825
 31
0.0
  0
SPLINE
  5
67
330
1F
100
AcDbEntity
  8
0
  6
Continuous
 62
     7
370
    15
100
AcDbSpline
210
0.0
220
0.0
230
1.0
 70
    11
 71
     3
 72
    28
 73
    24
 74
     0
 42
0.00000001
 43
0.00000001
 40
0.0
 40
0.0
 40
0.0
 40
0.0
 40
0.0475549994421435
 40
0.0949663740787705
 40
0.1460687990115139
 40
0.2034571387289784
 40
0.2467859971900352
 40
0.2901846848443719
 40
0.3330335387550798
 40
0.3834822194818872
 40
0.4410917585609272
 40
0.4950480748810787
 40
0.5415898511965956
 40
0.5869404059443439
 40
0.637023877555481
 40
0.6937077555567133
 40
0.7381345511406832
 40
0.7826957550188203
 40
0.8249697995515667
 40
0.8737311765999322
 40
0.9306925174565501
 40
0.9860188420552458
 40
0.9999999999999999
 40
0.9999999999999999
 40
0.9999999999999999
 40
0.9999999999999999
 10
267.5243417972475
 20
1436.370885382481
 30
0.0
 10
267.4543861887327
 20
1435.598086124018
 30
0.0
 10
267.3146862504492
 20
1434.054821602351
 30
0.0
 10
266.2417246275051
 20
1431.969143762296
 30
0.0
 10
264.587410475184
 20
1430.217813844806
 30
0.0
 10
262.4593005746252
 20
1429.104274204761
 30
0.0
 10
260.1338462262379
 20
1428.721791398738
 30
0.0
 10
258.0191094085591
 20
1428.979690188469
 30
0.0
 10
256.023934134844
 20
1429.815475659839
 30
0.0
 10
254.2079376660504
 20
1431.286794447986
 30
0.0
 10
252.837390241067
 20
1433.456427820582
 30
0.0
 10
252.2971477309954
 20
1436.006148257304
 30
0.0
 10
252.5859291953543
 20
1438.390142176594
 30
0.0
 10
253.501530608693
 20
1440.467727290987
 30
0.0
 10
255.042025382163
 20
1442.262530245251
 30
0.0
 10
257.0764109750889
 20
1443.481228798415
 30
0.0
 10
259.3851969422898
 20
1444.00400670694
 30
0.0
 10
261.5488217933755
 20
1443.855212288869
 30
0.0
 10
263.5789340191217
 20
1443.118141147555
 30
0.0
 10
265.4381158156052
 20
1441.77045383788
 30
0.0
 10
266.9137672709845
 20
1439.7188111921
 30
0.0
 10
267.4868793564081
 20
1437.718084388097
 30
0.0
 10
267.5180532049579
 20
1436.597031492804
 30
0.0
 10
267.5243417972475
 20
1436.370885382481
 30
0.0
  0
SPLINE
  5
68
330
1F
100
AcDbEntity
  8
0
  6
Continuous
 62
     7
370
    15
100
AcDbSpline
210
0.0
220
0.0
230
1.0
 70
    11
 71
     3
 72
    28
 73
    24
 74
     0
 42
0.00000001
 43
0.00000001
 40
0.0
 40
0.0
 40
0.0
 40
0.0
 40
0.0475550050087206
 40
0.0949653385184626
 40
0.1460677694330291
 40
0.2034561158681179
 40
0.2467873886430557
 40
0.2901836512630017
 40
0.3330325101894062
 40
0.3834848236041799
 40
0.4410931200030691
 40
0.4950494426391074
 40
0.5415915132442483
 40
0.5869420733005312
 40
0.6370240314096558
 40
0.6937079160460513
 40
0.7381347168304248
 40
0.7826959259246985
 40
0.8249699754058569
 40
0.8737313581620128
 40
0.9306913401168461
 40
0.9860189502769442
 40
1.0
 40
1.0
 40
1.0
 40
1.0
 10
1287.524322723761
 20
1436.370885382481
 30
0.0
 10
1287.454356685063
 20
1435.598090899124
 30
0.0
 10
1287.314637457855
 20
1434.054852922307
 30
0.0
 10
1286.241852872723
 20
1431.969113651794
 30
0.0
 10
1284.587498156726
 20
1430.217820322843
 30
0.0
 10
1282.459369579371
 20
1429.104252648585
 30
0.0
 10
1280.133904796563
 20
1428.721797549428
 30
0.0
 10
1278.019163926103
 20
1428.979694229641
 30
0.0
 10
1276.024023726735
 20
1429.815537122299
 30
0.0
 10
1274.20776900217
 20
1431.286675816031
 30
0.0
 10
1272.837422062853
 20
1433.456473605484
 30
0.0
 10
1272.297070645473
 20
1436.006151543215
 30
0.0
 10
1272.586065047188
 20
1438.390138646148
 30
0.0
 10
1273.501630363295
 20
1440.467690171266
 30
0.0
 10
1275.041997574978
 20
1442.262566776202
 30
0.0
 10
1277.076398503143
 20
1443.481223699052
 30
0.0
 10
1279.385175384253
 20
1444.004007592747
 30
0.0
 10
1281.548806702191
 20
1443.855213358201
 30
0.0
 10
1283.578901326416
 20
1443.118136046716
 30
0.0
 10
1285.438143083253
 20
1441.77049066731
 30
0.0
 10
1286.913460637616
 20
1439.718725792523
 30
0.0
 10
1287.487139470231
 20
1437.718118335027
 30
0.0
 10
1287.518081125383
 20
1436.597032537839
 30
0.0
 10
1287.524322723762
 20
1436.370885382481
 30
0.0
  0
SPLINE
  5
69
330
1F
100
AcDbEntity
  8
0
  6
Continuous
 62
     7
370
    15
100
AcDbSpline
210
0.0
220
0.0
230
1.0
 70
    11
 71
     3
 72
    28
 73
    24
 74
     0
 42
0.00000001
 43
0.00000001
 40
0.0
 40
0.0
 40
0.0
 40
0.0
 40
0.0475552013996637
 40
0.0949665917560898
 40
0.1460690336324435
 40
0.2034573923776873
 40
0.2467850605856765
 40
0.2901849776879639
 40
0.3330338458057134
 40
0.3834834499348189
 40
0.4410923833933036
 40
0.4950487176033067
 40
0.5415905093502971
 40
0.5869410791345554
 40
0.6370245673514567
 40
0.6937084641468958
 40
0.7381340894921944
 40
0.7826953081451229
 40
0.8249693666943262
 40
0.8737307599101
 40
0.9306921196529206
 40
0.9860187823289326
 40
1.0
 40
1.0
 40
1.0
 40
1.0
 10
-242.4755890613646
 20
1436.370885382481
 30
0.0
 10
-242.5455694608438
 20
1435.598086824505
 30
0.0
 10
-242.6853186330203
 20
1434.054826718251
 30
0.0
 10
-243.7582613064169
 20
1431.969143084129
 30
0.0
 10
-245.4125812129375
 20
1430.217813912317
 30
0.0
 10
-247.5406735692799
 20
1429.104283597665
 30
0.0
 10
-249.8661215824012
 20
1428.7217905042
 30
0.0
 10
-251.9808665692382
 20
1428.979680507497
 30
0.0
 10
-253.9760574609696
 20
1429.815491731712
 30
0.0
 10
-255.7921228706285
 20
1431.286757423017
 30
0.0
 10
-257.1625849751037
 20
1433.456448698832
 30
0.0
 10
-257.7028465690498
 20
1436.006145851791
 30
0.0
 10
-257.4140603510749
 20
1438.390142815895
 30
0.0
 10
-256.4984600661762
 20
1440.467726894007
 30
0.0
 10
-254.9579652735993
 20
1442.262531296243
 30
0.0
 10
-252.9235943617716
 20
1443.481215377838
 30
0.0
 10
-250.6148354224601
 20
1444.004011492339
 30
0.0
 10
-248.451227870794
 20
1443.855210811704
 30
0.0
 10
-246.4211159632755
 20
1443.118141358311
 30
0.0
 10
-244.5619352735204
 20
1441.770454910837
 30
0.0
 10
-243.0862752189428
 20
1439.718801788759
 30
0.0
 10
-242.5131792138054
 20
1437.718086485029
 30
0.0
 10
-242.4818990841175
 20
1436.597031568591
 30
0.0
 10
-242.4755890613646
 20
1436.370885382481
 30
0.0
  0
SPLINE
  5
6A
330
1F
100
AcDbEntity
  8
0
  6
Continuous
 62
     7
370
    15
100
AcDbSpline
210
0.0
220
0.0
230
1.0
 70
    11
 71
     3
 72
    28
 73
    24
 74
     0
 42
0.00000001
 43
0.00000001
 40
0.0
 40
0.0
 40
0.0
 40
0.0
 40
0.0475551085890468
 40
0.0949663683926019
 40
0.1460694132410154
 40
0.2034572476244318
 40
0.2467855184045673
 40
0.2901854357699716
 40
0.3330337540003755
 40
0.3834831317651988
 40
0.441092377931357
 40
0.4950486814856493
 40
0.5415905096130255
 40
0.5869407808360846
 40
0.6370246492094731
 40
0.6937085463485646
 40
0.7381338757213403
 40
0.7826954006588828
 40
0.8249694594643773
 40
0.8737310897145885
 40
0.930692279102524
 40
0.98601878224417
 40
1.0
 40
1.0
 40
1.0
 40
1.0
 10
-752.4756093269438
 20
1436.370885382481
 30
0.0
 10
-752.545579313682
 20
1435.598087629871
 30
0.0
 10
-752.6853076359204
 20
1434.054829749807
 30
0.0
 10
-753.7582316722385
 20
1431.969124163224
 30
0.0
 10
-755.4126020245027
 20
1430.217837682188
 30
0.0
 10
-757.5406758372527
 20
1429.10427049643
 30
0.0
 10
-759.8661333258954
 20
1428.721794109336
 30
0.0
 10
-761.9808789197782
 20
1428.979674909537
 30
0.0
 10
-763.9760530686848
 20
1429.815496404074
 30
0.0
 10
-765.7920946659591
 20
1431.286769409153
 30
0.0
 10
-767.1625965877105
 20
1433.456437467504
 30
0.0
 10
-767.7028509448427
 20
1436.006150895582
 30
0.0
 10
-767.4140272726569
 20
1438.390130805967
 30
0.0
 10
-766.4984947859585
 20
1440.467745706522
 30
0.0
 10
-764.9579479858044
 20
1442.262520366025
 30
0.0
 10
-762.9235912605797
 20
1443.481214098845
 30
0.0
 10
-760.6148310211902
 20
1444.004012386777
 30
0.0
 10
-758.4512224555981
 20
1443.855212796993
 30
0.0
 10
-756.4211050069927
 20
1443.118137659064
 30
0.0
 10
-754.561912149241
 20
1441.770463414194
 30
0.0
 10
-753.0862583890819
 20
1439.718801492968
 30
0.0
 10
-752.5132011212978
 20
1437.7180835281
 30
0.0
 10
-752.4819196374268
 20
1436.597031506308
 30
0.0
 10
-752.4756093269438
 20
1436.370885382481
 30
0.0
  0
SPLINE
  5
6B
330
1F
100
AcDbEntity
  8
0
  6
Continuous
 62
     7
370
    15
100
AcDbSpline
210
0.0
220
0.0
230
1.0
 70
    11
 71
     3
 72
    28
 73
    24
 74
     0
 42
0.00000001
 43
0.00000001
 40
0.0
 40
0.0
 40
0.0
 40
0.0
 40
0.0475549984491589
 40
0.0949663720958004
 40
0.1460687959614864
 40
0.2034571344806387
 40
0.2467835828006154
 40
0.2901846996658554
 40
0.3330335526818466
 40
0.3834822323552473
 40
0.4410917702313563
 40
0.4950480854248589
 40
0.5415898607685481
 40
0.5869404145693423
 40
0.6370238851346984
 40
0.6937077619523283
 40
0.738134556608633
 40
0.7826957595562982
 40
0.8249698032063305
 40
0.8737311792365213
 40
0.9306925189037432
 40
0.9860188423471832
 40
1.0
 40
1.0
 40
1.0
 40
1.0
 10
777.5243322605044
 20
1436.370885382481
 30
0.0
 10
777.454376657645
 20
1435.598086115369
 30
0.0
 10
777.3146767306549
 20
1434.05482157643
 30
0.0
 10
776.2417150210146
 20
1431.969143868967
 30
0.0
 10
774.5874012377485
 20
1430.217813387049
 30
0.0
 10
772.4593236737855
 20
1429.104293611795
 30
0.0
 10
770.1338805191435
 20
1428.721788149907
 30
0.0
 10
768.0191348882499
 20
1428.979676225222
 30
0.0
 10
766.0239247422784
 20
1429.81547537488
 30
0.0
 10
764.2079280814127
 20
1431.286794542649
 30
0.0
 10
762.8373807169863
 20
1433.456427795555
 30
0.0
 10
762.2971381914534
 20
1436.006148262836
 30
0.0
 10
762.5859196592917
 20
1438.39014217525
 30
0.0
 10
763.5015210717493
 20
1440.467727291383
 30
0.0
 10
765.0420158454838
 20
1442.262530245123
 30
0.0
 10
767.0764014383323
 20
1443.481228798443
 30
0.0
 10
769.3851874055499
 20
1444.004006706933
 30
0.0
 10
771.5488122566323
 20
1443.855212288871
 30
0.0
 10
773.578924482378
 20
1443.118141147555
 30
0.0
 10
775.438106278862
 20
1441.77045383788
 30
0.0
 10
776.9137577342419
 20
1439.718811192099
 30
0.0
 10
777.4868698196644
 20
1437.718084388097
 30
0.0
 10
777.5180436682148
 20
1436.597031492804
 30
0.0
 10
777.5243322605044
 20
1436.370885382481
 30
0.0
  0
CIRCLE
  5
6C
330
1F
100
AcDbEntity
  8
0
  6
Continuous
 62
     7
370
    15
100
AcDbCircle
 10
-760.0256097561
 20
1436.370886956
 30
0.0
 40
6.449999999999942
  0
CIRCLE
  5
6D
330
1F
100
AcDbEntity
  8
0
  6
Continuous
 62
     7
370
    15
100
AcDbCircle
 10
-760.0256097561
 20
1436.370886956
 30
0.0
 40
7.449999999999815
  0
LINE
  5
6E
330
1F
100
AcDbEntity
  8
0
  6
Continuous
 62
     7
370
    15
100
AcDbLine
 10
-758.2575578934
 20
1434.0889290078
 30
0.0
 11
-757.1653474814
 21
1436.7610834642
 31
0.0
  0
LINE
  5
6F
330
1F
100
AcDbEntity
  8
0
  6
Continuous
 62
     7
370
    15
100
AcDbLine
 10
-761.1178208834
 20
1433.6987309261
 30
0.0
 11
-758.2575578934
 21
1434.0889290078
 31
0.0
  0
LINE
  5
70
330
1F
100
AcDbEntity
  8
0
  6
Continuous
 62
     7
370
    15
100
AcDbLine
 10
-757.1653474814
 20
1436.7610834642
 30
0.0
 11
-758.9334000593
 21
1439.0430398389
 31
0.0
  0
LINE
  5
71
330
1F
100
AcDbEntity
  8
0
  6
Continuous
 62
     7
370
    15
100
AcDbLine
 10
-762.8858734614
 20
1435.9806873007
 30
0.0
 11
-761.1178208834
 21
1433.6987309261
 31
0.0
  0
LINE
  5
72
330
1F
100
AcDbEntity
  8
0
  6
Continuous
 62
     7
370
    15
100
AcDbLine
 10
-758.9334000593
 20
1439.0430398389
 30
0.0
 11
-761.7936630493
 21
1438.6528417571
 31
0.0
  0
LINE
  5
73
330
1F
100
AcDbEntity
  8
0
  6
Continuous
 62
     7
370
    15
100
AcDbLine
 10
-761.7936630493
 20
1438.6528417571
 30
0.0
 11
-762.8858734614
 21
1435.9806873007
 31
0.0
  0
CIRCLE
  5
74
330
1F
100
AcDbEntity
  8
0
  6
Continuous
 62
     7
370
    15
100
AcDbCircle
 10
-250.0256097561
 20
1436.370886956
 30
0.0
 40
6.449999999999894
  0
CIRCLE
  5
75
330
1F
100
AcDbEntity
  8
0
  6
Continuous
 62
     7
370
    15
100
AcDbCircle
 10
-250.0256097561
 20
1436.370886956
 30
0.0
 40
7.449999999999883
  0
LINE
  5
76
330
1F
100
AcDbEntity
  8
0
  6
Continuous
 62
     7
370
    15
100
AcDbLine
 10
-248.9333946949
 20
1439.0430398389
 30
0.0
 11
-251.7936427837
 21
1438.6528417571
 31
0.0
  0
LINE
  5
77
330
1F
100
AcDbEntity
  8
0
  6
Continuous
 62
     7
370
    15
100
AcDbLine
 10
-251.7936427837
 20
1438.6528417571
 30
0.0
 11
-252.8858382946
 21
1435.9806873007
 31
0.0
  0
LINE
  5
78
330
1F
100
AcDbEntity
  8
0
  6
Continuous
 62
     7
370
    15
100
AcDbLine
 10
-252.8858382946
 20
1435.9806873007
 30
0.0
 11
-251.1178453213
 21
1433.6987309261
 31
0.0
  0
LINE
  5
79
330
1F
100
AcDbEntity
  8
0
  6
Continuous
 62
     7
370
    15
100
AcDbLine
 10
-251.1178453213
 20
1433.6987309261
 30
0.0
 11
-248.2575376278
 21
1434.0889290078
 31
0.0
  0
LINE
  5
7A
330
1F
100
AcDbEntity
  8
0
  6
Continuous
 62
     7
370
    15
100
AcDbLine
 10
-248.2575376278
 20
1434.0889290078
 30
0.0
 11
-247.1653421169
 21
1436.7610834642
 31
0.0
  0
LINE
  5
7B
330
1F
100
AcDbEntity
  8
0
  6
Continuous
 62
     7
370
    15
100
AcDbLine
 10
-247.1653421169
 20
1436.7610834642
 30
0.0
 11
-248.9333946949
 21
1439.0430398389
 31
0.0
  0
CIRCLE
  5
7C
330
1F
100
AcDbEntity
  8
0
  6
Continuous
 62
     7
370
    15
100
AcDbCircle
 10
769.9743902439
 20
1436.370886956
 30
0.0
 40
6.449999999999942
  0
LINE
  5
7D
330
1F
100
AcDbEntity
  8
0
  6
Continuous
 62
     7
370
    15
100
AcDbLine
 10
768.8821356052
 20
1433.6987309261
 30
0.0
 11
771.7424432987
 21
1434.0889290078
 31
0.0
  0
LINE
  5
7E
330
1F
100
AcDbEntity
  8
0
  6
Continuous
 62
     7
370
    15
100
AcDbLine
 10
768.2063381428
 20
1438.6528417571
 30
0.0
 11
767.1141426319
 21
1435.9806873007
 31
0.0
  0
LINE
  5
7F
330
1F
100
AcDbEntity
  8
0
  6
Continuous
 62
     7
370
    15
100
AcDbLine
 10
767.1141426319
 20
1435.9806873007
 30
0.0
 11
768.8821356052
 21
1433.6987309261
 31
0.0
  0
LINE
  5
80
330
1F
100
AcDbEntity
  8
0
  6
Continuous
 62
     7
370
    15
100
AcDbLine
 10
771.0666458362
 20
1439.0430398389
 30
0.0
 11
768.2063381428
 21
1438.6528417571
 31
0.0
  0
LINE
  5
81
330
1F
100
AcDbEntity
  8
0
  6
Continuous
 62
     7
370
    15
100
AcDbLine
 10
771.7424432987
 20
1434.0889290078
 30
0.0
 11
772.8346388096
 21
1436.7610834642
 31
0.0
  0
LINE
  5
82
330
1F
100
AcDbEntity
  8
0
  6
Continuous
 62
     7
370
    15
100
AcDbLine
 10
772.8346388096
 20
1436.7610834642
 30
0.0
 11
771.0666458362
 21
1439.0430398389
 31
0.0
  0
CIRCLE
  5
83
330
1F
100
AcDbEntity
  8
0
  6
Continuous
 62
     7
370
    15
100
AcDbCircle
 10
769.9743902439
 20
1436.370886956
 30
0.0
 40
7.450000000000043
  0
CIRCLE
  5
84
330
1F
100
AcDbEntity
  8
0
  6
Continuous
 62
     7
370
    15
100
AcDbCircle
 10
1279.9743902439
 20
1436.370886956
 30
0.0
 40
6.449999999999851
  0
LINE
  5
85
330
1F
100
AcDbEntity
  8
0
  6
Continuous
 62
     7
370
    15
100
AcDbLine
 10
1281.0665170902
 20
1439.0430398389
 30
0.0
 11
1278.2064478153
 21
1438.6528417571
 31
0.0
  0
LINE
  5
86
330
1F
100
AcDbEntity
  8
0
  6
Continuous
 62
     7
370
    15
100
AcDbLine
 10
1278.2064478153
 20
1438.6528417571
 30
0.0
 11
1277.1140138859
 21
1435.9806873007
 31
0.0
  0
LINE
  5
87
330
1F
100
AcDbEntity
  8
0
  6
Continuous
 62
     7
370
    15
100
AcDbLine
 10
1277.1140138859
 20
1435.9806873007
 30
0.0
 11
1278.8821260685
 21
1433.6987309261
 31
0.0
  0
LINE
  5
88
330
1F
100
AcDbEntity
  8
0
  6
Continuous
 62
     7
370
    15
100
AcDbLine
 10
1278.8821260685
 20
1433.6987309261
 30
0.0
 11
1281.742433762
 21
1434.0889290078
 31
0.0
  0
LINE
  5
89
330
1F
100
AcDbEntity
  8
0
  6
Continuous
 62
     7
370
    15
100
AcDbLine
 10
1281.742433762
 20
1434.0889290078
 30
0.0
 11
1282.8346292728
 21
1436.7610834642
 31
0.0
  0
LINE
  5
8A
330
1F
100
AcDbEntity
  8
0
  6
Continuous
 62
     7
370
    15
100
AcDbLine
 10
1282.8346292728
 20
1436.7610834642
 30
0.0
 11
1281.0665170902
 21
1439.0430398389
 31
0.0
  0
CIRCLE
  5
8B
330
1F
100
AcDbEntity
  8
0
  6
Continuous
 62
     7
370
    15
100
AcDbCircle
 10
1279.9743902439
 20
1436.370886956
 30
0.0
 40
7.449999999999952
  0
LINE
  5
8C
330
1F
100
AcDbEntity
  8
0
  6
Continuous
 62
     7
370
    15
100
AcDbLine
 10
1344.1835443729
 20
1437.8289789065
 30
0.0
 11
1346.341709351
 21
1438.6508934303
 31
0.0
  0
LINE
  5
8D
330
1F
100
AcDbEntity
  8
0
  6
Continuous
 62
     7
370
    15
100
AcDbLine
 10
1343.8161413425
 20
1435.5489708586
 30
0.0
 11
1344.1835443729
 21
1437.8289789065
 31
0.0
  0
LINE
  5
8E
330
1F
100
AcDbEntity
  8
0
  6
Continuous
 62
     7
370
    15
100
AcDbLine
 10
1343.8161413425
 20
1435.5489708586
 30
0.0
 11
1345.6071417087
 21
1434.09088106
 31
0.0
  0
LINE
  5
8F
330
1F
100
AcDbEntity
  8
0
  6
Continuous
 62
     7
370
    15
100
AcDbLine
 10
1347.7653066868
 20
1434.9127955838
 30
0.0
 11
1345.6071417087
 21
1434.09088106
 31
0.0
  0
LINE
  5
90
330
1F
100
AcDbEntity
  8
0
  6
Continuous
 62
     7
370
    15
100
AcDbLine
 10
1347.7653066868
 20
1434.9127955838
 30
0.0
 11
1348.1324712986
 21
1437.1928036316
 31
0.0
  0
LINE
  5
91
330
1F
100
AcDbEntity
  8
0
  6
Continuous
 62
     7
370
    15
100
AcDbLine
 10
1348.1324712986
 20
1437.1928036316
 30
0.0
 11
1346.341709351
 21
1438.6508934303
 31
0.0
  0
LINE
  5
92
330
1F
100
AcDbEntity
  8
0
  6
Continuous
 62
     7
370
    15
100
AcDbLine
 10
-828.1837974435
 20
1435.5489708586
 30
0.0
 11
-826.392908836
 21
1434.09088106
 31
0.0
  0
LINE
  5
93
330
1F
100
AcDbEntity
  8
0
  6
Continuous
 62
     7
370
    15
100
AcDbLine
 10
-823.8674153334
 20
1437.1928036316
 30
0.0
 11
-825.6583113915
 21
1438.6508934303
 31
0.0
  0
LINE
  5
94
330
1F
100
AcDbEntity
  8
0
  6
Continuous
 62
     7
370
    15
100
AcDbLine
 10
-827.8165061718
 20
1437.8289789065
 30
0.0
 11
-825.6583113915
 21
1438.6508934303
 31
0.0
  0
LINE
  5
95
330
1F
100
AcDbEntity
  8
0
  6
Continuous
 62
     7
370
    15
100
AcDbLine
 10
-827.8165061718
 20
1437.8289789065
 30
0.0
 11
-828.1837974435
 21
1435.5489708586
 31
0.0
  0
LINE
  5
96
330
1F
100
AcDbEntity
  8
0
  6
Continuous
 62
     7
370
    15
100
AcDbLine
 10
-823.8674153334
 20
1437.1928036316
 30
0.0
 11
-824.2347140556
 21
1434.9127955838
 31
0.0
  0
LINE
  5
97
330
1F
100
AcDbEntity
  8
0
  6
Continuous
 62
     7
370
    15
100
AcDbLine
 10
-824.2347140556
 20
1434.9127955838
 30
0.0
 11
-826.392908836
 21
1434.09088106
 31
0.0
  0
CIRCLE
  5
98
330
1F
100
AcDbEntity
  8
0
  6
Continuous
 62
     7
370
    15
100
AcDbCircle
 10
-826.0256097561
 20
1436.370886956
 30
0.0
 40
20.00000000000004
  0
CIRCLE
  5
99
330
1F
100
AcDbEntity
  8
0
  6
Continuous
 62
     7
370
    15
100
AcDbCircle
 10
1345.9743902439
 20
1436.370886956
 30
0.0
 40
20.00000000000004
  0
CIRCLE
  5
9A
330
1F
100
AcDbEntity
  8
0
  6
Continuous
 62
     7
370
    15
100
AcDbCircle
 10
259.9743902439
 20
1436.370886956
 30
0.0
 40
6.449999999999943
  0
CIRCLE
  5
9B
330
1F
100
AcDbEntity
  8
0
  6
Continuous
 62
     7
370
    15
100
AcDbCircle
 10
259.9743902439
 20
1436.370886956
 30
0.0
 40
7.450000000000045
  0
LINE
  5
9C
330
1F
100
AcDbEntity
  8
0
  6
Continuous
 62
     7
370
    15
100
AcDbLine
 10
257.8682701343
 20
1438.345114152
 30
0.0
 11
257.2115461582
 21
1435.5340473457
 31
0.0
  0
LINE
  5
9D
330
1F
100
AcDbEntity
  8
0
  6
Continuous
 62
     7
370
    15
100
AcDbLine
 10
262.0805303806
 20
1434.3966566129
 30
0.0
 11
262.7371351475
 21
1437.2077271445
 31
0.0
  0
LINE
  5
9E
330
1F
100
AcDbEntity
  8
0
  6
Continuous
 62
     7
370
    15
100
AcDbLine
 10
259.317735886
 20
1433.5598185762
 30
0.0
 11
262.0805303806
 21
1434.3966566129
 31
0.0
  0
LINE
  5
9F
330
1F
100
AcDbEntity
  8
0
  6
Continuous
 62
     7
370
    15
100
AcDbLine
 10
257.2115461582
 20
1435.5340473457
 30
0.0
 11
259.317735886
 21
1433.5598185762
 31
0.0
  0
LINE
  5
A0
330
1F
100
AcDbEntity
  8
0
  6
Continuous
 62
     7
370
    15
100
AcDbLine
 10
260.631064629
 20
1439.1819559141
 30
0.0
 11
257.8682701343
 21
1438.345114152
 31
0.0
  0
LINE
  5
A1
330
1F
100
AcDbEntity
  8
0
  6
Continuous
 62
     7
370
    15
100
AcDbLine
 10
262.7371351475
 20
1437.2077271445
 30
0.0
 11
260.631064629
 21
1439.1819559141
 31
0.0
  0
ARC
  5
A2
330
1F
100
AcDbEntity
  8
0
  6
Continuous
 62
     7
370
    15
100
AcDbCircle
 10
-760.0256097561
 20
1436.370886956
 30
0.0
 40
23.99999999999994
100
AcDbArc
 50
31.3881664643
 51
108.8005444417
  0
ARC
  5
A3
330
1F
100
AcDbEntity
  8
0
  6
Continuous
 62
     7
370
    15
100
AcDbCircle
 10
-760.0256097561
 20
1436.370886956
 30
0.0
 40
24.00000000000005
100
AcDbArc
 50
224.9005279607
 51
328.6118335356
  0
ARC
  5
A4
330
1F
100
AcDbEntity
  8
0
  6
Continuous
 62
     7
370
    15
100
AcDbCircle
 10
-760.0256097561
 20
1436.370886956
 30
0.0
 40
25.0000000000002
100
AcDbArc
 50
227.1563569564
 51
330.0
  0
ARC
  5
A5
330
1F
100
AcDbEntity
  8
0
  6
Continuous
 62
     7
370
    15
100
AcDbCircle
 10
-760.0256097561
 20
1436.370886956
 30
0.0
 40
25.00000000000015
100
AcDbArc
 50
30.0
 51
106.0973005297
  0
ARC
  5
A6
330
1F
100
AcDbEntity
  8
0
  6
Continuous
 62
     7
370
    15
100
AcDbCircle
 10
259.9743902439
 20
1436.370886956
 30
0.0
 40
24.00000000000007
100
AcDbArc
 50
31.3881664643
 51
148.6118335357
  0
ARC
  5
A7
330
1F
100
AcDbEntity
  8
0
  6
Continuous
 62
     7
370
    15
100
AcDbCircle
 10
259.9743902439
 20
1436.370886956
 30
0.0
 40
23.99999999999994
100
AcDbArc
 50
211.3881664644
 51
328.6118335357
  0
ARC
  5
A8
330
1F
100
AcDbEntity
  8
0
  6
Continuous
 62
     7
370
    15
100
AcDbCircle
 10
259.9743902439
 20
1436.370886956
 30
0.0
 40
24.99999999999991
100
AcDbArc
 50
210.0
 51
330.0
  0
ARC
  5
A9
330
1F
100
AcDbEntity
  8
0
  6
Continuous
 62
     7
370
    15
100
AcDbCircle
 10
259.9743902439
 20
1436.370886956
 30
0.0
 40
25.00000000000011
100
AcDbArc
 50
30.0
 51
150.0
  0
ARC
  5
AA
330
1F
100
AcDbEntity
  8
0
  6
Continuous
 62
     7
370
    15
100
AcDbCircle
 10
769.9743902439
 20
1436.370886956
 30
0.0
 40
24.00000000000003
100
AcDbArc
 50
31.3881664643
 51
148.6118335357
  0
ARC
  5
AB
330
1F
100
AcDbEntity
  8
0
  6
Continuous
 62
     7
370
    15
100
AcDbCircle
 10
769.9743902439
 20
1436.370886956
 30
0.0
 40
24.0
100
AcDbArc
 50
211.3881664644
 51
328.6118335356
  0
ARC
  5
AC
330
1F
100
AcDbEntity
  8
0
  6
Continuous
 62
     7
370
    15
100
AcDbCircle
 10
769.9743902439
 20
1436.370886956
 30
0.0
 40
25.00000000000009
100
AcDbArc
 50
210.0
 51
330.0
  0
ARC
  5
AD
330
1F
100
AcDbEntity
  8
0
  6
Continuous
 62
     7
370
    15
100
AcDbCircle
 10
769.9743902439
 20
1436.370886956
 30
0.0
 40
24.99999999999999
100
AcDbArc
 50
30.0
 51
150.0
  0
ARC
  5
AE
330
1F
100
AcDbEntity
  8
0
  6
Continuous
 62
     7
370
    15
100
AcDbCircle
 10
1279.9743902439
 20
1436.370886956
 30
0.0
 40
24.00000000000023
100
AcDbArc
 50
31.3881664643
 51
148.6118335357
  0
ARC
  5
AF
330
1F
100
AcDbEntity
  8
0
  6
Continuous
 62
     7
370
    15
100
AcDbCircle
 10
1279.9743902439
 20
1436.370886956
 30
0.0
 40
24.0000000000001
100
AcDbArc
 50
211.3881664644
 51
328.6118335356
  0
ARC
  5
B0
330
1F
100
AcDbEntity
  8
0
  6
Continuous
 62
     7
370
    15
100
AcDbCircle
 10
1279.9743902439
 20
1436.370886956
 30
0.0
 40
24.99999999999978
100
AcDbArc
 50
210.0
 51
330.0
  0
ARC
  5
B1
330
1F
100
AcDbEntity
  8
0
  6
Continuous
 62
     7
370
    15
100
AcDbCircle
 10
1279.9743902439
 20
1436.370886956
 30
0.0
 40
24.99999999999999
100
AcDbArc
 50
30.0
 51
150.0
  0
ARC
  5
B2
330
1F
100
AcDbEntity
  8
0
  6
Continuous
 62
     7
370
    15
100
AcDbCircle
 10
-250.0256097561
 20
1436.370886956
 30
0.0
 40
23.99999999999996
100
AcDbArc
 50
31.3881664643
 51
148.6118335357
  0
ARC
  5
B3
330
1F
100
AcDbEntity
  8
0
  6
Continuous
 62
     7
370
    15
100
AcDbCircle
 10
-250.0256097561
 20
1436.370886956
 30
0.0
 40
24.00000000000007
100
AcDbArc
 50
211.3881664644
 51
328.6118335356
  0
ARC
  5
B4
330
1F
100
AcDbEntity
  8
0
  6
Continuous
 62
     7
370
    15
100
AcDbCircle
 10
-250.0256097561
 20
1436.370886956
 30
0.0
 40
25.00000000000011
100
AcDbArc
 50
210.0
 51
330.0
  0
ARC
  5
B5
330
1F
100
AcDbEntity
  8
0
  6
Continuous
 62
     7
370
    15
100
AcDbCircle
 10
-250.0256097561
 20
1436.370886956
 30
0.0
 40
24.99999999999998
100
AcDbArc
 50
30.0
 51
150.0
  0
LINE
  5
B6
330
1F
100
AcDbEntity
  8
0
  6
Continuous
 62
     7
370
    15
100
AcDbLine
 10
1411.7744962925
 20
1423.8708861275
 30
0.0
 11
1411.7744962925
 21
1448.8708883627
 31
0.0
  0
LINE
  5
B7
330
1F
100
AcDbEntity
  8
0
  6
Continuous
 62
     7
370
    15
100
AcDbLine
 10
1411.9742910618
 20
1448.6708887025
 30
0.0
 11
1411.9742910618
 21
1424.0708876504
 31
0.0
  0
LINE
  5
B8
330
1F
100
AcDbEntity
  8
0
  6
Continuous
 62
     7
370
    15
100
AcDbLine
 10
1410.1744692081
 20
1448.8708883627
 30
0.0
 11
1410.1744692081
 21
1423.8708861275
 31
0.0
  0
LINE
  5
B9
330
1F
100
AcDbEntity
  8
0
  6
Continuous
 62
     7
370
    15
100
AcDbLine
 10
-891.8256097611
 20
1448.8708883627
 30
0.0
 11
-891.8256097611
 21
1423.8708861275
 31
0.0
  0
LINE
  5
BA
330
1F
100
AcDbEntity
  8
0
  6
Continuous
 62
     7
370
    15
100
AcDbLine
 10
-892.0256097561
 20
1424.0708876504
 30
0.0
 11
-892.0256097561
 21
1448.6708887025
 31
0.0
  0
LINE
  5
BB
330
1F
100
AcDbEntity
  8
0
  6
Continuous
 62
     7
370
    15
100
AcDbLine
 10
-890.225609787
 20
1423.8708861275
 30
0.0
 11
-890.225609787
 21
1448.8708883627
 31
0.0
  0
LINE
  5
BC
330
1F
100
AcDbEntity
  8
0
  6
Continuous
 62
     7
370
    15
100
AcDbLine
 10
-51.8256027943
 20
-644.5290386574
 30
0.0
 11
-51.8256027943
 21
-661.8291675941
 31
0.0
  0
LINE
  5
BD
330
1F
100
AcDbEntity
  8
0
  6
Continuous
 62
     7
370
    15
100
AcDbLine
 10
-52.0256359821
 20
-661.8291675941
 30
0.0
 11
-51.8256027943
 21
-661.8291675941
 31
0.0
  0
LINE
  5
BE
330
1F
100
AcDbEntity
  8
0
  6
Continuous
 62
     7
370
    15
100
AcDbLine
 10
-52.0256359821
 20
-661.8291675941
 30
0.0
 11
-52.0256359821
 21
-644.5290386574
 31
0.0
  0
LINE
  5
BF
330
1F
100
AcDbEntity
  8
0
  6
Continuous
 62
     7
370
    15
100
AcDbLine
 10
-51.8256027943
 20
-644.5290386574
 30
0.0
 11
-52.0256359821
 21
-644.5290386574
 31
0.0
  0
LINE
  5
C0
330
1F
100
AcDbEntity
  8
0
  6
Continuous
 62
     7
370
    15
100
AcDbLine
 10
-12.2255881077
 20
-661.8291675941
 30
0.0
 11
-12.2255881077
 21
-644.5290386574
 31
0.0
  0
LINE
  5
C1
330
1F
100
AcDbEntity
  8
0
  6
Continuous
 62
     7
370
    15
100
AcDbLine
 10
-12.2255881077
 20
-644.5290386574
 30
0.0
 11
-12.0256145245
 21
-644.5290386574
 31
0.0
  0
LINE
  5
C2
330
1F
100
AcDbEntity
  8
0
  6
Continuous
 62
     7
370
    15
100
AcDbLine
 10
-12.0256145245
 20
-644.5290386574
 30
0.0
 11
-12.0256145245
 21
-661.8291675941
 31
0.0
  0
LINE
  5
C3
330
1F
100
AcDbEntity
  8
0
  6
Continuous
 62
     7
370
    15
100
AcDbLine
 10
-12.0256145245
 20
-661.8291675941
 30
0.0
 11
-12.2255881077
 21
-661.8291675941
 31
0.0
  0
LINE
  5
C4
330
1F
100
AcDbEntity
  8
0
  6
Continuous
 62
     7
370
    15
100
AcDbLine
 10
-12.2255881077
 20
-662.029200782
 30
0.0
 11
-51.8256027943
 21
-662.029200782
 31
0.0
  0
LINE
  5
C5
330
1F
100
AcDbEntity
  8
0
  6
Continuous
 62
     7
370
    15
100
AcDbLine
 10
-51.8256027943
 20
-662.029200782
 30
0.0
 11
-51.8256027943
 21
-661.8291675941
 31
0.0
  0
LINE
  5
C6
330
1F
100
AcDbEntity
  8
0
  6
Continuous
 62
     7
370
    15
100
AcDbLine
 10
-51.8256027943
 20
-661.8291675941
 30
0.0
 11
-12.2255881077
 21
-661.8291675941
 31
0.0
  0
LINE
  5
C7
330
1F
100
AcDbEntity
  8
0
  6
Continuous
 62
     7
370
    15
100
AcDbLine
 10
-12.2255881077
 20
-662.029200782
 30
0.0
 11
-12.2255881077
 21
-661.8291675941
 31
0.0
  0
LINE
  5
C8
330
1F
100
AcDbEntity
  8
0
  6
Continuous
 62
     7
370
    15
100
AcDbLine
 10
-14.5256121403
 20
-642.2290146248
 30
0.0
 11
-49.5256383663
 21
-642.2290146248
 31
0.0
  0
LINE
  5
C9
330
1F
100
AcDbEntity
  8
0
  6
Continuous
 62
     7
370
    15
100
AcDbLine
 10
-49.5256383663
 20
-642.2290146248
 30
0.0
 11
-49.5256383663
 21
-642.0292198555
 31
0.0
  0
LINE
  5
CA
330
1F
100
AcDbEntity
  8
0
  6
Continuous
 62
     7
370
    15
100
AcDbLine
 10
-49.5256383663
 20
-642.0292198555
 30
0.0
 11
-14.5256121403
 21
-642.0292198555
 31
0.0
  0
LINE
  5
CB
330
1F
100
AcDbEntity
  8
0
  6
Continuous
 62
     7
370
    15
100
AcDbLine
 10
-14.5256121403
 20
-642.2290146248
 30
0.0
 11
-14.5256121403
 21
-642.0292198555
 31
0.0
  0
LINE
  5
CC
330
1F
100
AcDbEntity
  8
0
  6
Continuous
 62
     7
370
    15
100
AcDbLine
 10
-12.2255881077
 20
-662.029200782
 30
0.0
 11
-12.0256145245
 21
-661.8291675941
 31
0.0
  0
LINE
  5
CD
330
1F
100
AcDbEntity
  8
0
  6
Continuous
 62
     7
370
    15
100
AcDbLine
 10
-52.0256359821
 20
-661.8291675941
 30
0.0
 11
-51.8256027943
 21
-662.029200782
 31
0.0
  0
ARC
  5
CE
330
1F
100
AcDbEntity
  8
0
  6
Continuous
 62
     7
370
    15
100
AcDbCircle
 10
-14.5256097561
 20
-644.529113044
 30
0.0
 40
2.300000000000081
100
AcDbArc
 50
0.0
 51
90.0
  0
ARC
  5
CF
330
1F
100
AcDbEntity
  8
0
  6
Continuous
 62
     7
370
    15
100
AcDbCircle
 10
-49.5256097561
 20
-644.529113044
 30
0.0
 40
2.300000000000075
100
AcDbArc
 50
90.0
 51
180.0
  0
ARC
  5
D0
330
1F
100
AcDbEntity
  8
0
  6
Continuous
 62
     7
370
    15
100
AcDbCircle
 10
-14.5256097561
 20
-644.529113044
 30
0.0
 40
2.500000000000059
100
AcDbArc
 50
0.0
 51
90.0
  0
ARC
  5
D1
330
1F
100
AcDbEntity
  8
0
  6
Continuous
 62
     7
370
    15
100
AcDbCircle
 10
-49.5256097561
 20
-644.529113044
 30
0.0
 40
2.500000000000057
100
AcDbArc
 50
90.0
 51
180.0
  0
CIRCLE
  5
D2
330
1F
100
AcDbEntity
  8
0
  6
Continuous
 62
     7
370
    15
100
AcDbCircle
 10
-792.0256097561
 20
1340.970886956
 30
0.0
 40
7.784999999999961
  0
LINE
  5
D3
330
1F
100
AcDbEntity
  8
0
  6
Continuous
 62
     7
370
    15
100
AcDbLine
 10
-790.0178109056
 20
1338.8807013734
 30
0.0
 11
-792.8318653947
 21
1338.1869889899
 31
0.0
  0
LINE
  5
D4
330
1F
100
AcDbEntity
  8
0
  6
Continuous
 62
     7
370
    15
100
AcDbLine
 10
-789.2115537768
 20
1341.6645996376
 30
0.0
 11
-790.0178109056
 21
1338.8807013734
 31
0.0
  0
LINE
  5
D5
330
1F
100
AcDbEntity
  8
0
  6
Continuous
 62
     7
370
    15
100
AcDbLine
 10
-791.2193511373
 20
1343.7547855182
 30
0.0
 11
-789.2115537768
 21
1341.6645996376
 31
0.0
  0
LINE
  5
D6
330
1F
100
AcDbEntity
  8
0
  6
Continuous
 62
     7
370
    15
100
AcDbLine
 10
-794.0334056264
 20
1343.0610731347
 30
0.0
 11
-791.2193511373
 21
1343.7547855182
 31
0.0
  0
LINE
  5
D7
330
1F
100
AcDbEntity
  8
0
  6
Continuous
 62
     7
370
    15
100
AcDbLine
 10
-794.8396627551
 20
1340.2771748706
 30
0.0
 11
-794.0334056264
 21
1343.0610731347
 31
0.0
  0
LINE
  5
D8
330
1F
100
AcDbEntity
  8
0
  6
Continuous
 62
     7
370
    15
100
AcDbLine
 10
-792.8318653947
 20
1338.1869889899
 30
0.0
 11
-794.8396627551
 21
1340.2771748706
 31
0.0
  0
ARC
  5
D9
330
1F
100
AcDbEntity
  8
0
  6
Continuous
 62
     7
370
    15
100
AcDbCircle
 10
-792.0256097561
 20
1340.970886956
 30
0.0
 40
2.510000000000023
100
AcDbArc
 50
343.8482527894
 51
43.8482527894
  0
ARC
  5
DA
330
1F
100
AcDbEntity
  8
0
  6
Continuous
 62
     7
370
    15
100
AcDbCircle
 10
-792.0256097561
 20
1340.970886956
 30
0.0
 40
2.509999999999942
100
AcDbArc
 50
223.8482527894
 51
283.8482527894
  0
ARC
  5
DB
330
1F
100
AcDbEntity
  8
0
  6
Continuous
 62
     7
370
    15
100
AcDbCircle
 10
-792.0256097561
 20
1340.970886956
 30
0.0
 40
2.510000000000065
100
AcDbArc
 50
163.8482527894
 51
223.8482527894
  0
ARC
  5
DC
330
1F
100
AcDbEntity
  8
0
  6
Continuous
 62
     7
370
    15
100
AcDbCircle
 10
-792.0256097561
 20
1340.970886956
 30
0.0
 40
2.510000000000065
100
AcDbArc
 50
103.8482527894
 51
163.8482527894
  0
ARC
  5
DD
330
1F
100
AcDbEntity
  8
0
  6
Continuous
 62
     7
370
    15
100
AcDbCircle
 10
-792.0256097561
 20
1340.970886956
 30
0.0
 40
2.510000000000054
100
AcDbArc
 50
43.8482527894
 51
103.8482527894
  0
ARC
  5
DE
330
1F
100
AcDbEntity
  8
0
  6
Continuous
 62
     7
370
    15
100
AcDbCircle
 10
-792.0256097561
 20
1340.970886956
 30
0.0
 40
2.509999999999956
100
AcDbArc
 50
283.8482527894
 51
343.8482527894
  0
LINE
  5
DF
330
1F
100
AcDbEntity
  8
0
  6
Continuous
 62
     7
370
    15
100
AcDbLine
 10
-789.5157088286
 20
1287.4202117427
 30
0.0
 11
-789.5155076629
 21
1284.5219135388
 31
0.0
  0
LINE
  5
E0
330
1F
100
AcDbEntity
  8
0
  6
Continuous
 62
     7
370
    15
100
AcDbLine
 10
-792.0258168822
 20
1288.869185756
 30
0.0
 11
-789.5157088286
 21
1287.4202117427
 31
0.0
  0
LINE
  5
E1
330
1F
100
AcDbEntity
  8
0
  6
Continuous
 62
     7
370
    15
100
AcDbLine
 10
-794.5357088691
 20
1287.4198615654
 30
0.0
 11
-792.0258168822
 21
1288.869185756
 31
0.0
  0
LINE
  5
E2
330
1F
100
AcDbEntity
  8
0
  6
Continuous
 62
     7
370
    15
100
AcDbLine
 10
-789.5155076629
 20
1284.5219135388
 30
0.0
 11
-792.0254071003
 21
1283.0725893481
 31
0.0
  0
LINE
  5
E3
330
1F
100
AcDbEntity
  8
0
  6
Continuous
 62
     7
370
    15
100
AcDbLine
 10
-794.5355077034
 20
1284.5215633615
 30
0.0
 11
-794.5357088691
 21
1287.4198615654
 31
0.0
  0
CIRCLE
  5
E4
330
1F
100
AcDbEntity
  8
0
  6
Continuous
 62
     7
370
    15
100
AcDbCircle
 10
-792.0256097561
 20
1285.970886956
 30
0.0
 40
7.785000000000061
  0
LINE
  5
E5
330
1F
100
AcDbEntity
  8
0
  6
Continuous
 62
     7
370
    15
100
AcDbLine
 10
-792.0254071003
 20
1283.0725893481
 30
0.0
 11
-794.5355077034
 21
1284.5215633615
 31
0.0
  0
ARC
  5
E6
330
1F
100
AcDbEntity
  8
0
  6
Continuous
 62
     7
370
    15
100
AcDbCircle
 10
-792.0256097561
 20
1285.970886956
 30
0.0
 40
2.510000000000043
100
AcDbArc
 50
300.0040336572
 51
0.0040336572
  0
ARC
  5
E7
330
1F
100
AcDbEntity
  8
0
  6
Continuous
 62
     7
370
    15
100
AcDbCircle
 10
-792.0256097561
 20
1285.970886956
 30
0.0
 40
2.510000000000039
100
AcDbArc
 50
240.0040336572
 51
300.0040336572
  0
ARC
  5
E8
330
1F
100
AcDbEntity
  8
0
  6
Continuous
 62
     7
370
    15
100
AcDbCircle
 10
-792.0256097561
 20
1285.970886956
 30
0.0
 40
2.510000000000157
100
AcDbArc
 50
180.0040336572
 51
240.0040336572
  0
ARC
  5
E9
330
1F
100
AcDbEntity
  8
0
  6
Continuous
 62
     7
370
    15
100
AcDbCircle
 10
-792.0256097561
 20
1285.970886956
 30
0.0
 40
2.510000000000157
100
AcDbArc
 50
120.0040336572
 51
180.0040336572
  0
ARC
  5
EA
330
1F
100
AcDbEntity
  8
0
  6
Continuous
 62
     7
370
    15
100
AcDbCircle
 10
-792.0256097561
 20
1285.970886956
 30
0.0
 40
2.510000000000108
100
AcDbArc
 50
60.0040336572
 51
120.0040336572
  0
ARC
  5
EB
330
1F
100
AcDbEntity
  8
0
  6
Continuous
 62
     7
370
    15
100
AcDbCircle
 10
-792.0256097561
 20
1285.970886956
 30
0.0
 40
2.510000000000043
100
AcDbArc
 50
0.0040336572
 51
60.0040336572
  0
LINE
  5
EC
330
1F
100
AcDbEntity
  8
0
  6
Continuous
 62
     7
370
    15
100
AcDbLine
 10
-89.5157058483
 20
1287.4202117427
 30
0.0
 11
-89.5155270344
 21
1284.5219135388
 31
0.0
  0
LINE
  5
ED
330
1F
100
AcDbEntity
  8
0
  6
Continuous
 62
     7
370
    15
100
AcDbLine
 10
-92.0258362537
 20
1288.869185756
 30
0.0
 11
-89.5157058483
 21
1287.4202117427
 31
0.0
  0
LINE
  5
EE
330
1F
100
AcDbEntity
  8
0
  6
Continuous
 62
     7
370
    15
100
AcDbLine
 10
-94.5357282406
 20
1287.4198615654
 30
0.0
 11
-92.0258362537
 21
1288.869185756
 31
0.0
  0
LINE
  5
EF
330
1F
100
AcDbEntity
  8
0
  6
Continuous
 62
     7
370
    15
100
AcDbLine
 10
-94.535489822
 20
1284.5215633615
 30
0.0
 11
-94.5357282406
 21
1287.4198615654
 31
0.0
  0
LINE
  5
F0
330
1F
100
AcDbEntity
  8
0
  6
Continuous
 62
     7
370
    15
100
AcDbLine
 10
-92.0254190212
 20
1283.0725893481
 30
0.0
 11
-94.535489822
 21
1284.5215633615
 31
0.0
  0
LINE
  5
F1
330
1F
100
AcDbEntity
  8
0
  6
Continuous
 62
     7
370
    15
100
AcDbLine
 10
-89.5155270344
 20
1284.5219135388
 30
0.0
 11
-92.0254190212
 21
1283.0725893481
 31
0.0
  0
CIRCLE
  5
F2
330
1F
100
AcDbEntity
  8
0
  6
Continuous
 62
     7
370
    15
100
AcDbCircle
 10
-92.0256097561
 20
1285.970886956
 30
0.0
 40
7.78499999999999
  0
ARC
  5
F3
330
1F
100
AcDbEntity
  8
0
  6
Continuous
 62
     7
370
    15
100
AcDbCircle
 10
-92.0256097561
 20
1285.970886956
 30
0.0
 40
2.510000000000067
100
AcDbArc
 50
0.0040336572
 51
60.0040336572
  0
ARC
  5
F4
330
1F
100
AcDbEntity
  8
0
  6
Continuous
 62
     7
370
    15
100
AcDbCircle
 10
-92.0256097561
 20
1285.970886956
 30
0.0
 40
2.510000000000093
100
AcDbArc
 50
120.0040336572
 51
180.0040336572
  0
ARC
  5
F5
330
1F
100
AcDbEntity
  8
0
  6
Continuous
 62
     7
370
    15
100
AcDbCircle
 10
-92.0256097561
 20
1285.970886956
 30
0.0
 40
2.510000000000074
100
AcDbArc
 50
240.0040336572
 51
300.0040336572
  0
ARC
  5
F6
330
1F
100
AcDbEntity
  8
0
  6
Continuous
 62
     7
370
    15
100
AcDbCircle
 10
-92.0256097561
 20
1285.970886956
 30
0.0
 40
2.510000000000074
100
AcDbArc
 50
180.0040336572
 51
240.0040336572
  0
ARC
  5
F7
330
1F
100
AcDbEntity
  8
0
  6
Continuous
 62
     7
370
    15
100
AcDbCircle
 10
-92.0256097561
 20
1285.970886956
 30
0.0
 40
2.509999999999958
100
AcDbArc
 50
300.0040336572
 51
0.0040336572
  0
ARC
  5
F8
330
1F
100
AcDbEntity
  8
0
  6
Continuous
 62
     7
370
    15
100
AcDbCircle
 10
-92.0256097561
 20
1285.970886956
 30
0.0
 40
2.510000000000093
100
AcDbArc
 50
60.0040336572
 51
120.0040336572
  0
CIRCLE
  5
F9
330
1F
100
AcDbEntity
  8
0
  6
Continuous
 62
     7
370
    15
100
AcDbCircle
 10
-92.0256097561
 20
1340.970886956
 30
0.0
 40
7.784999999999937
  0
LINE
  5
FA
330
1F
100
AcDbEntity
  8
0
  6
Continuous
 62
     7
370
    15
100
AcDbLine
 10
-91.2193258053
 20
1343.7547855182
 30
0.0
 11
-89.211543346
 21
1341.6645996376
 31
0.0
  0
LINE
  5
FB
330
1F
100
AcDbEntity
  8
0
  6
Continuous
 62
     7
370
    15
100
AcDbLine
 10
-94.0333802944
 20
1343.0610731347
 30
0.0
 11
-91.2193258053
 21
1343.7547855182
 31
0.0
  0
LINE
  5
FC
330
1F
100
AcDbEntity
  8
0
  6
Continuous
 62
     7
370
    15
100
AcDbLine
 10
-94.8396523243
 20
1340.2771748706
 30
0.0
 11
-94.0333802944
 21
1343.0610731347
 31
0.0
  0
LINE
  5
FD
330
1F
100
AcDbEntity
  8
0
  6
Continuous
 62
     7
370
    15
100
AcDbLine
 10
-92.831869865
 20
1338.1869889899
 30
0.0
 11
-94.8396523243
 21
1340.2771748706
 31
0.0
  0
LINE
  5
FE
330
1F
100
AcDbEntity
  8
0
  6
Continuous
 62
     7
370
    15
100
AcDbLine
 10
-89.211543346
 20
1341.6645996376
 30
0.0
 11
-90.0178153759
 21
1338.8807013734
 31
0.0
  0
LINE
  5
FF
330
1F
100
AcDbEntity
  8
0
  6
Continuous
 62
     7
370
    15
100
AcDbLine
 10
-90.0178153759
 20
1338.8807013734
 30
0.0
 11
-92.831869865
 21
1338.1869889899
 31
0.0
  0
ARC
  5
100
330
1F
100
AcDbEntity
  8
0
  6
Continuous
 62
     7
370
    15
100
AcDbCircle
 10
-92.0256097561
 20
1340.970886956
 30
0.0
 40
2.509999999999983
100
AcDbArc
 50
283.8482527894
 51
343.8482527894
  0
ARC
  5
101
330
1F
100
AcDbEntity
  8
0
  6
Continuous
 62
     7
370
    15
100
AcDbCircle
 10
-92.0256097561
 20
1340.970886956
 30
0.0
 40
2.510000000000109
100
AcDbArc
 50
343.8482527894
 51
43.8482527894
  0
ARC
  5
102
330
1F
100
AcDbEntity
  8
0
  6
Continuous
 62
     7
370
    15
100
AcDbCircle
 10
-92.0256097561
 20
1340.970886956
 30
0.0
 40
2.509999999999962
100
AcDbArc
 50
223.8482527894
 51
283.8482527894
  0
ARC
  5
103
330
1F
100
AcDbEntity
  8
0
  6
Continuous
 62
     7
370
    15
100
AcDbCircle
 10
-92.0256097561
 20
1340.970886956
 30
0.0
 40
2.509999999999983
100
AcDbArc
 50
163.8482527894
 51
223.8482527894
  0
ARC
  5
104
330
1F
100
AcDbEntity
  8
0
  6
Continuous
 62
     7
370
    15
100
AcDbCircle
 10
-92.0256097561
 20
1340.970886956
 30
0.0
 40
2.510000000000031
100
AcDbArc
 50
103.8482527894
 51
163.8482527894
  0
ARC
  5
105
330
1F
100
AcDbEntity
  8
0
  6
Continuous
 62
     7
370
    15
100
AcDbCircle
 10
-92.0256097561
 20
1340.970886956
 30
0.0
 40
2.510000000000109
100
AcDbArc
 50
43.8482527894
 51
103.8482527894
  0
LINE
  5
106
330
1F
100
AcDbEntity
  8
0
  6
Continuous
 62
     7
370
    15
100
AcDbLine
 10
-792.9043148404
 20
1477.7327761157
 30
0.0
 11
-790.0730942136
 21
1477.1128058537
 31
0.0
  0
LINE
  5
107
330
1F
100
AcDbEntity
  8
0
  6
Continuous
 62
     7
370
    15
100
AcDbLine
 10
-793.9781223184
 20
1472.8289678796
 30
0.0
 11
-794.8568214422
 21
1475.5908534034
 31
0.0
  0
LINE
  5
108
330
1F
100
AcDbEntity
  8
0
  6
Continuous
 62
     7
370
    15
100
AcDbLine
 10
-789.1943950897
 20
1474.3509203299
 30
0.0
 11
-791.1469091421
 21
1472.2089976175
 31
0.0
  0
CIRCLE
  5
109
330
1F
100
AcDbEntity
  8
0
  6
Continuous
 62
     7
370
    15
100
AcDbCircle
 10
-792.0256097561
 20
1474.970886956
 30
0.0
 40
7.784999999999831
  0
LINE
  5
10A
330
1F
100
AcDbEntity
  8
0
  6
Continuous
 62
     7
370
    15
100
AcDbLine
 10
-794.8568214422
 20
1475.5908534034
 30
0.0
 11
-792.9043148404
 21
1477.7327761157
 31
0.0
  0
LINE
  5
10B
330
1F
100
AcDbEntity
  8
0
  6
Continuous
 62
     7
370
    15
100
AcDbLine
 10
-790.0730942136
 20
1477.1128058537
 30
0.0
 11
-789.1943950897
 21
1474.3509203299
 31
0.0
  0
LINE
  5
10C
330
1F
100
AcDbEntity
  8
0
  6
Continuous
 62
     7
370
    15
100
AcDbLine
 10
-791.1469091421
 20
1472.2089976175
 30
0.0
 11
-793.9781223184
 21
1472.8289678796
 31
0.0
  0
ARC
  5
10D
330
1F
100
AcDbEntity
  8
0
  6
Continuous
 62
     7
370
    15
100
AcDbCircle
 10
-792.0256097561
 20
1474.970886956
 30
0.0
 40
2.510000000000024
100
AcDbArc
 50
257.6486180877
 51
317.6486180877
  0
ARC
  5
10E
330
1F
100
AcDbEntity
  8
0
  6
Continuous
 62
     7
370
    15
100
AcDbCircle
 10
-792.0256097561
 20
1474.970886956
 30
0.0
 40
2.510000000000108
100
AcDbArc
 50
137.6486180877
 51
197.6486180877
  0
ARC
  5
10F
330
1F
100
AcDbEntity
  8
0
  6
Continuous
 62
     7
370
    15
100
AcDbCircle
 10
-792.0256097561
 20
1474.970886956
 30
0.0
 40
2.509999999999928
100
AcDbArc
 50
17.6486180877
 51
77.6486180877
  0
ARC
  5
110
330
1F
100
AcDbEntity
  8
0
  6
Continuous
 62
     7
370
    15
100
AcDbCircle
 10
-792.0256097561
 20
1474.970886956
 30
0.0
 40
2.510000000000024
100
AcDbArc
 50
317.6486180877
 51
17.6486180877
  0
ARC
  5
111
330
1F
100
AcDbEntity
  8
0
  6
Continuous
 62
     7
370
    15
100
AcDbCircle
 10
-792.0256097561
 20
1474.970886956
 30
0.0
 40
2.509999999999831
100
AcDbArc
 50
197.6486180877
 51
257.6486180877
  0
ARC
  5
112
330
1F
100
AcDbEntity
  8
0
  6
Continuous
 62
     7
370
    15
100
AcDbCircle
 10
-792.0256097561
 20
1474.970886956
 30
0.0
 40
2.510000000000108
100
AcDbArc
 50
77.6486180877
 51
137.6486180877
  0
LINE
  5
113
330
1F
100
AcDbEntity
  8
0
  6
Continuous
 62
     7
370
    15
100
AcDbLine
 10
-92.0258362537
 20
1417.869184549
 30
0.0
 11
-89.5157058483
 21
1416.4202123984
 31
0.0
  0
LINE
  5
114
330
1F
100
AcDbEntity
  8
0
  6
Continuous
 62
     7
370
    15
100
AcDbLine
 10
-94.5357282406
 20
1416.4198584958
 30
0.0
 11
-92.0258362537
 21
1417.869184549
 31
0.0
  0
LINE
  5
115
330
1F
100
AcDbEntity
  8
0
  6
Continuous
 62
     7
370
    15
100
AcDbLine
 10
-92.0254190212
 20
1412.0725881412
 30
0.0
 11
-94.535489822
 21
1413.5215602918
 31
0.0
  0
LINE
  5
116
330
1F
100
AcDbEntity
  8
0
  6
Continuous
 62
     7
370
    15
100
AcDbLine
 10
-89.5155270344
 20
1413.5219141944
 30
0.0
 11
-92.0254190212
 21
1412.0725881412
 31
0.0
  0
CIRCLE
  5
117
330
1F
100
AcDbEntity
  8
0
  6
Continuous
 62
     7
370
    15
100
AcDbCircle
 10
-92.0256097561
 20
1414.970886956
 30
0.0
 40
7.78499999999999
  0
LINE
  5
118
330
1F
100
AcDbEntity
  8
0
  6
Continuous
 62
     7
370
    15
100
AcDbLine
 10
-94.535489822
 20
1413.5215602918
 30
0.0
 11
-94.5357282406
 21
1416.4198584958
 31
0.0
  0
LINE
  5
119
330
1F
100
AcDbEntity
  8
0
  6
Continuous
 62
     7
370
    15
100
AcDbLine
 10
-89.5157058483
 20
1416.4202123984
 30
0.0
 11
-89.5155270344
 21
1413.5219141944
 31
0.0
  0
ARC
  5
11A
330
1F
100
AcDbEntity
  8
0
  6
Continuous
 62
     7
370
    15
100
AcDbCircle
 10
-92.0256097561
 20
1414.970886956
 30
0.0
 40
2.510000000000093
100
AcDbArc
 50
300.0040336572
 51
0.0040336572
  0
ARC
  5
11B
330
1F
100
AcDbEntity
  8
0
  6
Continuous
 62
     7
370
    15
100
AcDbCircle
 10
-92.0256097561
 20
1414.970886956
 30
0.0
 40
2.510000000000067
100
AcDbArc
 50
0.0040336572
 51
60.0040336572
  0
ARC
  5
11C
330
1F
100
AcDbEntity
  8
0
  6
Continuous
 62
     7
370
    15
100
AcDbCircle
 10
-92.0256097561
 20
1414.970886956
 30
0.0
 40
2.510000000000074
100
AcDbArc
 50
180.0040336572
 51
240.0040336572
  0
ARC
  5
11D
330
1F
100
AcDbEntity
  8
0
  6
Continuous
 62
     7
370
    15
100
AcDbCircle
 10
-92.0256097561
 20
1414.970886956
 30
0.0
 40
2.510000000000093
100
AcDbArc
 50
240.0040336572
 51
300.0040336572
  0
ARC
  5
11E
330
1F
100
AcDbEntity
  8
0
  6
Continuous
 62
     7
370
    15
100
AcDbCircle
 10
-92.0256097561
 20
1414.970886956
 30
0.0
 40
2.510000000000093
100
AcDbArc
 50
120.0040336572
 51
180.0040336572
  0
ARC
  5
11F
330
1F
100
AcDbEntity
  8
0
  6
Continuous
 62
     7
370
    15
100
AcDbCircle
 10
-92.0256097561
 20
1414.970886956
 30
0.0
 40
2.510000000000093
100
AcDbArc
 50
60.0040336572
 51
120.0040336572
  0
LINE
  5
120
330
1F
100
AcDbEntity
  8
0
  6
Continuous
 62
     7
370
    15
100
AcDbLine
 10
-789.5157088286
 20
1416.4202123984
 30
0.0
 11
-789.5155076629
 21
1413.5219141944
 31
0.0
  0
LINE
  5
121
330
1F
100
AcDbEntity
  8
0
  6
Continuous
 62
     7
370
    15
100
AcDbLine
 10
-792.0258168822
 20
1417.869184549
 30
0.0
 11
-789.5157088286
 21
1416.4202123984
 31
0.0
  0
LINE
  5
122
330
1F
100
AcDbEntity
  8
0
  6
Continuous
 62
     7
370
    15
100
AcDbLine
 10
-794.5357088691
 20
1416.4198584958
 30
0.0
 11
-792.0258168822
 21
1417.869184549
 31
0.0
  0
LINE
  5
123
330
1F
100
AcDbEntity
  8
0
  6
Continuous
 62
     7
370
    15
100
AcDbLine
 10
-794.5355077034
 20
1413.5215602918
 30
0.0
 11
-794.5357088691
 21
1416.4198584958
 31
0.0
  0
LINE
  5
124
330
1F
100
AcDbEntity
  8
0
  6
Continuous
 62
     7
370
    15
100
AcDbLine
 10
-789.5155076629
 20
1413.5219141944
 30
0.0
 11
-792.0254071003
 21
1412.0725881412
 31
0.0
  0
CIRCLE
  5
125
330
1F
100
AcDbEntity
  8
0
  6
Continuous
 62
     7
370
    15
100
AcDbCircle
 10
-792.0256097561
 20
1414.970886956
 30
0.0
 40
7.785000000000061
  0
LINE
  5
126
330
1F
100
AcDbEntity
  8
0
  6
Continuous
 62
     7
370
    15
100
AcDbLine
 10
-792.0254071003
 20
1412.0725881412
 30
0.0
 11
-794.5355077034
 21
1413.5215602918
 31
0.0
  0
ARC
  5
127
330
1F
100
AcDbEntity
  8
0
  6
Continuous
 62
     7
370
    15
100
AcDbCircle
 10
-792.0256097561
 20
1414.970886956
 30
0.0
 40
2.51000000000005
100
AcDbArc
 50
300.0040336572
 51
0.0040336572
  0
ARC
  5
128
330
1F
100
AcDbEntity
  8
0
  6
Continuous
 62
     7
370
    15
100
AcDbCircle
 10
-792.0256097561
 20
1414.970886956
 30
0.0
 40
2.510000000000236
100
AcDbArc
 50
240.0040336572
 51
300.0040336572
  0
ARC
  5
129
330
1F
100
AcDbEntity
  8
0
  6
Continuous
 62
     7
370
    15
100
AcDbCircle
 10
-792.0256097561
 20
1414.970886956
 30
0.0
 40
2.510000000000236
100
AcDbArc
 50
180.0040336572
 51
240.0040336572
  0
ARC
  5
12A
330
1F
100
AcDbEntity
  8
0
  6
Continuous
 62
     7
370
    15
100
AcDbCircle
 10
-792.0256097561
 20
1414.970886956
 30
0.0
 40
2.509999999999994
100
AcDbArc
 50
120.0040336572
 51
180.0040336572
  0
ARC
  5
12B
330
1F
100
AcDbEntity
  8
0
  6
Continuous
 62
     7
370
    15
100
AcDbCircle
 10
-792.0256097561
 20
1414.970886956
 30
0.0
 40
2.509999999999994
100
AcDbArc
 50
60.0040336572
 51
120.0040336572
  0
ARC
  5
12C
330
1F
100
AcDbEntity
  8
0
  6
Continuous
 62
     7
370
    15
100
AcDbCircle
 10
-792.0256097561
 20
1414.970886956
 30
0.0
 40
2.510000000000043
100
AcDbArc
 50
0.0040336572
 51
60.0040336572
  0
LINE
  5
12D
330
1F
100
AcDbEntity
  8
0
  6
Continuous
 62
     7
370
    15
100
AcDbLine
 10
-92.9042895084
 20
1477.7327761157
 30
0.0
 11
-90.0730688816
 21
1477.1128058537
 31
0.0
  0
LINE
  5
12E
330
1F
100
AcDbEntity
  8
0
  6
Continuous
 62
     7
370
    15
100
AcDbLine
 10
-94.856818462
 20
1475.5908534034
 30
0.0
 11
-92.9042895084
 21
1477.7327761157
 31
0.0
  0
LINE
  5
12F
330
1F
100
AcDbEntity
  8
0
  6
Continuous
 62
     7
370
    15
100
AcDbLine
 10
-93.9781267887
 20
1472.8289678796
 30
0.0
 11
-94.856818462
 21
1475.5908534034
 31
0.0
  0
LINE
  5
130
330
1F
100
AcDbEntity
  8
0
  6
Continuous
 62
     7
370
    15
100
AcDbLine
 10
-91.1469061619
 20
1472.2089976175
 30
0.0
 11
-93.9781267887
 21
1472.8289678796
 31
0.0
  0
LINE
  5
131
330
1F
100
AcDbEntity
  8
0
  6
Continuous
 62
     7
370
    15
100
AcDbLine
 10
-89.1943772083
 20
1474.3509203299
 30
0.0
 11
-91.1469061619
 21
1472.2089976175
 31
0.0
  0
LINE
  5
132
330
1F
100
AcDbEntity
  8
0
  6
Continuous
 62
     7
370
    15
100
AcDbLine
 10
-90.0730688816
 20
1477.1128058537
 30
0.0
 11
-89.1943772083
 21
1474.3509203299
 31
0.0
  0
CIRCLE
  5
133
330
1F
100
AcDbEntity
  8
0
  6
Continuous
 62
     7
370
    15
100
AcDbCircle
 10
-92.0256097561
 20
1474.970886956
 30
0.0
 40
7.784999999999837
  0
ARC
  5
134
330
1F
100
AcDbEntity
  8
0
  6
Continuous
 62
     7
370
    15
100
AcDbCircle
 10
-92.0256097561
 20
1474.970886956
 30
0.0
 40
2.510000000000003
100
AcDbArc
 50
137.6486180877
 51
197.6486180877
  0
ARC
  5
135
330
1F
100
AcDbEntity
  8
0
  6
Continuous
 62
     7
370
    15
100
AcDbCircle
 10
-92.0256097561
 20
1474.970886956
 30
0.0
 40
2.509999999999992
100
AcDbArc
 50
257.6486180877
 51
317.6486180877
  0
ARC
  5
136
330
1F
100
AcDbEntity
  8
0
  6
Continuous
 62
     7
370
    15
100
AcDbCircle
 10
-92.0256097561
 20
1474.970886956
 30
0.0
 40
2.509999999999992
100
AcDbArc
 50
317.6486180877
 51
17.6486180877
  0
ARC
  5
137
330
1F
100
AcDbEntity
  8
0
  6
Continuous
 62
     7
370
    15
100
AcDbCircle
 10
-92.0256097561
 20
1474.970886956
 30
0.0
 40
2.510000000000056
100
AcDbArc
 50
77.6486180877
 51
137.6486180877
  0
ARC
  5
138
330
1F
100
AcDbEntity
  8
0
  6
Continuous
 62
     7
370
    15
100
AcDbCircle
 10
-92.0256097561
 20
1474.970886956
 30
0.0
 40
2.510000000000056
100
AcDbArc
 50
17.6486180877
 51
77.6486180877
  0
ARC
  5
139
330
1F
100
AcDbEntity
  8
0
  6
Continuous
 62
     7
370
    15
100
AcDbCircle
 10
-92.0256097561
 20
1474.970886956
 30
0.0
 40
2.509999999999915
100
AcDbArc
 50
197.6486180877
 51
257.6486180877
  0
LINE
  5
13A
330
1F
100
AcDbEntity
  8
0
  6
Continuous
 62
     7
370
    15
100
AcDbLine
 10
-825.6499443894
 20
1439.2330892487
 30
0.0
 11
-828.3165220862
 21
1438.1273225053
 31
0.0
  0
LWPOLYLINE
  5
13B
330
1F
100
AcDbEntity
  8
0
  6
Continuous
 62
     7
370
    15
100
AcDbPolyline
 90
        9
 70
   128
 43
0.0
 10
-828.3165220862
 20
1438.1273225053
 10
-828.3200387603
 20
1438.1300233408
 10
-828.3304695731
 20
1438.1380178137
 10
-828.3474047428
 20
1438.1510041757
 10
-828.3701960689
 20
1438.1684795125
 10
-828.3979718333
 20
1438.1897732719
 10
-828.4296591526
 20
1438.2140658899
 10
-828.4640361315
 20
1438.2404260441
 10
-828.4997914678
 20
1438.2678367301
  0
LINE
  5
13C
330
1F
100
AcDbEntity
  8
0
  6
Continuous
 62
     7
370
    15
100
AcDbLine
 10
-828.4997914678
 20
1438.2678367301
 30
0.0
 11
-825.6198961979
 21
1439.4620679422
 31
0.0
  0
LWPOLYLINE
  5
13D
330
1F
100
AcDbEntity
  8
0
  6
Continuous
 62
     7
370
    15
100
AcDbPolyline
 90
       10
 70
   128
 43
0.0
 10
-825.6499443894
 20
1439.2330892487
 10
-825.649489904
 20
1439.2365686699
 10
-825.6481338984
 20
1439.2468988999
 10
-825.6459210759
 20
1439.2637670143
 10
-825.6429110414
 20
1439.2866626485
 10
-825.6392081028
 20
1439.3148854478
 10
-825.6349165684
 20
1439.3475785955
 10
-825.6301705485
 20
1439.3837511643
 10
-825.6251116043
 20
1439.4223041936
 10
-825.6198961979
 20
1439.4620679422
  0
LINE
  5
13E
330
1F
100
AcDbEntity
  8
0
  6
Continuous
 62
     7
370
    15
100
AcDbLine
 10
-823.1457073933
 20
1437.5651165946
 30
0.0
 11
-823.5514287597
 21
1434.4739340349
 31
0.0
  0
LWPOLYLINE
  5
13F
330
1F
100
AcDbEntity
  8
0
  6
Continuous
 62
     7
370
    15
100
AcDbPolyline
 90
       10
 70
   128
 43
0.0
 10
-823.5514287597
 20
1434.4739340349
 10
-823.5832501894
 20
1434.4983346863
 10
-823.6141104942
 20
1434.521994005
 10
-823.6430634504
 20
1434.5441930099
 10
-823.6692298895
 20
1434.5642574235
 10
-823.6918200499
 20
1434.5815762981
 10
-823.7101484781
 20
1434.5956243678
 10
-823.7236489302
 20
1434.6059769495
 10
-823.7319190746
 20
1434.6123173936
 10
-823.7346981412
 20
1434.6144519849
  0
LINE
  5
140
330
1F
100
AcDbEntity
  8
0
  6
Continuous
 62
     7
370
    15
100
AcDbLine
 10
-823.7346981412
 20
1434.6144519849
 30
0.0
 11
-823.3590398675
 21
1437.4766558512
 31
0.0
  0
LWPOLYLINE
  5
141
330
1F
100
AcDbEntity
  8
0
  6
Continuous
 62
     7
370
    15
100
AcDbPolyline
 90
       10
 70
   128
 43
0.0
 10
-823.1457073933
 20
1437.5651165946
 10
-823.18275168
 20
1437.5497534974
 10
-823.2186709291
 20
1437.5348597868
 10
-823.2523773557
 20
1437.5208862229
 10
-823.2828353292
 20
1437.5082537635
 10
-823.3091284281
 20
1437.4973498388
 10
-823.3304594403
 20
1437.4885059996
 10
-823.3461727148
 20
1437.4819904669
 10
-823.3557988649
 20
1437.4779969557
 10
-823.3590398675
 20
1437.4766558512
  0
LINE
  5
142
330
1F
100
AcDbEntity
  8
0
  6
Continuous
 62
     7
370
    15
100
AcDbLine
 10
-828.3165220862
 20
1438.1273225053
 30
0.0
 11
-828.6921803599
 21
1435.2651186391
 31
0.0
  0
LWPOLYLINE
  5
143
330
1F
100
AcDbEntity
  8
0
  6
Continuous
 62
     7
370
    15
100
AcDbPolyline
 90
        9
 70
   128
 43
0.0
 10
-828.6921803599
 20
1435.2651186391
 10
-828.6962781793
 20
1435.2634199067
 10
-828.7084226256
 20
1435.2583870395
 10
-828.7281368619
 20
1435.2502100273
 10
-828.7546609288
 20
1435.239209245
 10
-828.786988998
 20
1435.2258056505
 10
-828.823869372
 20
1435.2105096086
 10
-828.863893891
 20
1435.1939171656
 10
-828.9055053836
 20
1435.1766578956
  0
LINE
  5
144
330
1F
100
AcDbEntity
  8
0
  6
Continuous
 62
     7
370
    15
100
AcDbLine
 10
-828.9055053836
 20
1435.1766578956
 30
0.0
 11
-828.4997914678
 21
1438.2678367301
 31
0.0
  0
LINE
  5
145
330
1F
100
AcDbEntity
  8
0
  6
Continuous
 62
     7
370
    15
100
AcDbLine
 10
-823.5514287597
 20
1434.4739340349
 30
0.0
 11
-826.4313240295
 21
1433.279706548
 31
0.0
  0
LWPOLYLINE
  5
146
330
1F
100
AcDbEntity
  8
0
  6
Continuous
 62
     7
370
    15
100
AcDbPolyline
 90
        9
 70
   128
 43
0.0
 10
-826.4313240295
 20
1433.279706548
 10
-826.4254604226
 20
1433.324376504
 10
-826.4198277837
 20
1433.3673328264
 10
-826.4146272784
 20
1433.4069177612
 10
-826.4100749737
 20
1433.4416188403
 10
-826.4063422328
 20
1433.4700949593
 10
-826.4035631662
 20
1433.4912546082
 10
-826.4018495327
 20
1433.5042819484
 10
-826.401275838
 20
1433.5086815162
  0
LINE
  5
147
330
1F
100
AcDbEntity
  8
0
  6
Continuous
 62
     7
370
    15
100
AcDbLine
 10
-826.401275838
 20
1433.5086815162
 30
0.0
 11
-823.7346981412
 21
1434.6144519849
 31
0.0
  0
LINE
  5
148
330
1F
100
AcDbEntity
  8
0
  6
Continuous
 62
     7
370
    15
100
AcDbLine
 10
-828.6921803599
 20
1435.2651186391
 30
0.0
 11
-826.401275838
 21
1433.5086815162
 31
0.0
  0
LINE
  5
149
330
1F
100
AcDbEntity
  8
0
  6
Continuous
 62
     7
370
    15
100
AcDbLine
 10
-826.4313240295
 20
1433.279706548
 30
0.0
 11
-828.9055053836
 21
1435.1766578956
 31
0.0
  0
LINE
  5
14A
330
1F
100
AcDbEntity
  8
0
  6
Continuous
 62
     7
370
    15
100
AcDbLine
 10
-823.3590398675
 20
1437.4766558512
 30
0.0
 11
-825.6499443894
 21
1439.2330892487
 31
0.0
  0
LINE
  5
14B
330
1F
100
AcDbEntity
  8
0
  6
Continuous
 62
     7
370
    15
100
AcDbLine
 10
-825.6198961979
 20
1439.4620679422
 30
0.0
 11
-823.1457073933
 21
1437.5651165946
 31
0.0
  0
CIRCLE
  5
14C
330
1F
100
AcDbEntity
  8
0
  6
Continuous
 62
     7
370
    15
100
AcDbCircle
 10
-826.0256097561
 20
1436.370886956
 30
0.0
 40
12.91715728752545
  0
CIRCLE
  5
14D
330
1F
100
AcDbEntity
  8
0
  6
Continuous
 62
     7
370
    15
100
AcDbCircle
 10
-826.0256097561
 20
1436.370886956
 30
0.0
 40
13.05857864376278
  0
CIRCLE
  5
14E
330
1F
100
AcDbEntity
  8
0
  6
Continuous
 62
     7
370
    15
100
AcDbCircle
 10
-826.0256097561
 20
1436.370886956
 30
0.0
 40
14.94142135623723
  0
CIRCLE
  5
14F
330
1F
100
AcDbEntity
  8
0
  6
Continuous
 62
     7
370
    15
100
AcDbCircle
 10
-826.0256097561
 20
1436.370886956
 30
0.0
 40
15.00000000000001
  0
LINE
  5
150
330
1F
100
AcDbEntity
  8
0
  6
Continuous
 62
     7
370
    15
100
AcDbLine
 10
1343.0944483036
 20
1435.1766578956
 30
0.0
 11
1343.5002367252
 21
1438.2678367301
 31
0.0
  0
LWPOLYLINE
  5
151
330
1F
100
AcDbEntity
  8
0
  6
Continuous
 62
     7
370
    15
100
AcDbPolyline
 90
       10
 70
   128
 43
0.0
 10
1343.5002367252
 20
1438.2678367301
 10
1343.5319463962
 20
1438.2434398039
 10
1343.5629408115
 20
1438.2197804852
 10
1343.5917894596
 20
1438.1975814803
 10
1343.6180155033
 20
1438.1775170668
 10
1343.6406652683
 20
1438.1601981922
 10
1343.6590234989
 20
1438.1461501225
 10
1343.6723749393
 20
1438.1357975407
 10
1343.6807195896
 20
1438.1294570966
 10
1343.6835806126
 20
1438.1273225053
  0
LINE
  5
152
330
1F
100
AcDbEntity
  8
0
  6
Continuous
 62
     7
370
    15
100
AcDbLine
 10
1343.6835806126
 20
1438.1273225053
 30
0.0
 11
1343.3078329319
 21
1435.2651186391
 31
0.0
  0
LINE
  5
153
330
1F
100
AcDbEntity
  8
0
  6
Continuous
 62
     7
370
    15
100
AcDbLine
 10
1343.3078329319
 20
1435.2651186391
 30
0.0
 11
1343.0944483036
 21
1435.1766578956
 31
0.0
  0
CIRCLE
  5
154
330
1F
100
AcDbEntity
  8
0
  6
Continuous
 62
     7
370
    15
100
AcDbCircle
 10
1345.9743902439
 20
1436.370886956
 30
0.0
 40
12.91715728752534
  0
CIRCLE
  5
155
330
1F
100
AcDbEntity
  8
0
  6
Continuous
 62
     7
370
    15
100
AcDbCircle
 10
1345.9743902439
 20
1436.370886956
 30
0.0
 40
13.05857864376257
  0
LINE
  5
156
330
1F
100
AcDbEntity
  8
0
  6
Continuous
 62
     7
370
    15
100
AcDbLine
 10
1343.5002367252
 20
1438.2678367301
 30
0.0
 11
1346.3800947422
 21
1439.4620679422
 31
0.0
  0
LWPOLYLINE
  5
157
330
1F
100
AcDbEntity
  8
0
  6
Continuous
 62
     7
370
    15
100
AcDbPolyline
 90
        9
 70
   128
 43
0.0
 10
1346.3800947422
 20
1439.4620679422
 10
1346.3741342777
 20
1439.417394261
 10
1346.3686506504
 20
1439.3744416638
 10
1346.3634054417
 20
1439.3348530038
 10
1346.3588754887
 20
1439.30015565
 10
1346.3550607914
 20
1439.2716795309
 10
1346.352438187
 20
1439.250519882
 10
1346.3505308384
 20
1439.2374888166
 10
1346.3500540012
 20
1439.2330892487
  0
LINE
  5
158
330
1F
100
AcDbEntity
  8
0
  6
Continuous
 62
     7
370
    15
100
AcDbLine
 10
1346.3500540012
 20
1439.2330892487
 30
0.0
 11
1343.6835806126
 21
1438.1273225053
 31
0.0
  0
LINE
  5
159
330
1F
100
AcDbEntity
  8
0
  6
Continuous
 62
     7
370
    15
100
AcDbLine
 10
1348.2652704471
 20
1434.6144519849
 30
0.0
 11
1348.6410181278
 21
1437.4766558512
 31
0.0
  0
LINE
  5
15A
330
1F
100
AcDbEntity
  8
0
  6
Continuous
 62
     7
370
    15
100
AcDbLine
 10
1348.8544027561
 20
1437.5651165946
 30
0.0
 11
1348.6410181278
 21
1437.4766558512
 31
0.0
  0
LINE
  5
15B
330
1F
100
AcDbEntity
  8
0
  6
Continuous
 62
     7
370
    15
100
AcDbLine
 10
1348.8544027561
 20
1437.5651165946
 30
0.0
 11
1348.4486143345
 21
1434.4739340349
 31
0.0
  0
ARC
  5
15C
330
1F
100
AcDbEntity
  8
0
  6
Continuous
 62
     7
370
    15
100
AcDbCircle
 10
1344.4937280703
 20
1429.5035791181
 30
0.0
 40
6.351814965886684
100
AcDbArc
 50
51.4909113834
 51
53.5747196704
  0
LINE
  5
15D
330
1F
100
AcDbEntity
  8
0
  6
Continuous
 62
     7
370
    15
100
AcDbLine
 10
1343.3078329319
 20
1435.2651186391
 30
0.0
 11
1345.5987970585
 21
1433.5086815162
 31
0.0
  0
LWPOLYLINE
  5
15E
330
1F
100
AcDbEntity
  8
0
  6
Continuous
 62
     7
370
    15
100
AcDbPolyline
 90
       10
 70
   128
 43
0.0
 10
1345.5987970585
 20
1433.5086815162
 10
1345.5983202213
 20
1433.5052058204
 10
1345.5968897098
 20
1433.4948755904
 10
1345.5947439426
 20
1433.4780074759
 10
1345.5916445011
 20
1433.4551118417
 10
1345.5880682224
 20
1433.4268890424
 10
1345.583776688
 20
1433.3941958948
 10
1345.5790083164
 20
1433.358023326
 10
1345.5740015263
 20
1433.3194665714
 10
1345.5687563175
 20
1433.279706548
  0
LINE
  5
15F
330
1F
100
AcDbEntity
  8
0
  6
Continuous
 62
     7
370
    15
100
AcDbLine
 10
1345.5687563175
 20
1433.279706548
 30
0.0
 11
1343.0944483036
 21
1435.1766578956
 31
0.0
  0
LINE
  5
160
330
1F
100
AcDbEntity
  8
0
  6
Continuous
 62
     7
370
    15
100
AcDbLine
 10
1348.6410181278
 20
1437.4766558512
 30
0.0
 11
1346.3500540012
 21
1439.2330892487
 31
0.0
  0
LINE
  5
161
330
1F
100
AcDbEntity
  8
0
  6
Continuous
 62
     7
370
    15
100
AcDbLine
 10
1346.3800947422
 20
1439.4620679422
 30
0.0
 11
1348.8544027561
 21
1437.5651165946
 31
0.0
  0
LINE
  5
162
330
1F
100
AcDbEntity
  8
0
  6
Continuous
 62
     7
370
    15
100
AcDbLine
 10
1345.5987970585
 20
1433.5086815162
 30
0.0
 11
1348.2652704471
 21
1434.6144519849
 31
0.0
  0
LINE
  5
163
330
1F
100
AcDbEntity
  8
0
  6
Continuous
 62
     7
370
    15
100
AcDbLine
 10
1348.4486143345
 20
1434.4739340349
 30
0.0
 11
1345.5687563175
 21
1433.279706548
 31
0.0
  0
CIRCLE
  5
164
330
1F
100
AcDbEntity
  8
0
  6
Continuous
 62
     7
370
    15
100
AcDbCircle
 10
1345.9743902439
 20
1436.370886956
 30
0.0
 40
14.94142135623763
  0
CIRCLE
  5
165
330
1F
100
AcDbEntity
  8
0
  6
Continuous
 62
     7
370
    15
100
AcDbCircle
 10
1345.9743902439
 20
1436.370886956
 30
0.0
 40
15.00000000000014
  0
CIRCLE
  5
166
330
1F
100
AcDbEntity
  8
0
  6
Continuous
 62
     7
370
    15
100
AcDbCircle
 10
-92.0256097561
 20
1340.970886956
 30
0.0
 40
8.74999999999997
  0
CIRCLE
  5
167
330
1F
100
AcDbEntity
  8
0
  6
Continuous
 62
     7
370
    15
100
AcDbCircle
 10
-92.0256097561
 20
1340.970886956
 30
0.0
 40
13.00000000000002
  0
CIRCLE
  5
168
330
1F
100
AcDbEntity
  8
0
  6
Continuous
 62
     7
370
    15
100
AcDbCircle
 10
-92.0256097561
 20
1340.970886956
 30
0.0
 40
15.00000000000004
  0
CIRCLE
  5
169
330
1F
100
AcDbEntity
  8
0
  6
Continuous
 62
     7
370
    15
100
AcDbCircle
 10
-92.0256097561
 20
1285.970886956
 30
0.0
 40
15.00000000000002
  0
CIRCLE
  5
16A
330
1F
100
AcDbEntity
  8
0
  6
Continuous
 62
     7
370
    15
100
AcDbCircle
 10
-92.0256097561
 20
1285.970886956
 30
0.0
 40
12.99999999999992
  0
CIRCLE
  5
16B
330
1F
100
AcDbEntity
  8
0
  6
Continuous
 62
     7
370
    15
100
AcDbCircle
 10
-92.0256097561
 20
1285.970886956
 30
0.0
 40
8.750000000000007
  0
CIRCLE
  5
16C
330
1F
100
AcDbEntity
  8
0
  6
Continuous
 62
     7
370
    15
100
AcDbCircle
 10
-792.0256097561
 20
1340.970886956
 30
0.0
 40
8.74999999999999
  0
CIRCLE
  5
16D
330
1F
100
AcDbEntity
  8
0
  6
Continuous
 62
     7
370
    15
100
AcDbCircle
 10
-792.0256097561
 20
1340.970886956
 30
0.0
 40
13.00000000000007
  0
CIRCLE
  5
16E
330
1F
100
AcDbEntity
  8
0
  6
Continuous
 62
     7
370
    15
100
AcDbCircle
 10
-792.0256097561
 20
1340.970886956
 30
0.0
 40
15.00000000000001
  0
CIRCLE
  5
16F
330
1F
100
AcDbEntity
  8
0
  6
Continuous
 62
     7
370
    15
100
AcDbCircle
 10
-792.0256097561
 20
1285.970886956
 30
0.0
 40
8.750000000000032
  0
CIRCLE
  5
170
330
1F
100
AcDbEntity
  8
0
  6
Continuous
 62
     7
370
    15
100
AcDbCircle
 10
-792.0256097561
 20
1285.970886956
 30
0.0
 40
13.00000000000006
  0
CIRCLE
  5
171
330
1F
100
AcDbEntity
  8
0
  6
Continuous
 62
     7
370
    15
100
AcDbCircle
 10
-792.0256097561
 20
1285.970886956
 30
0.0
 40
15.00000000000002
  0
CIRCLE
  5
172
330
1F
100
AcDbEntity
  8
0
  6
Continuous
 62
     7
370
    15
100
AcDbCircle
 10
-792.0256097561
 20
1474.970886956
 30
0.0
 40
15.0000000000001
  0
CIRCLE
  5
173
330
1F
100
AcDbEntity
  8
0
  6
Continuous
 62
     7
370
    15
100
AcDbCircle
 10
-792.0256097561
 20
1474.970886956
 30
0.0
 40
13.00000000000015
  0
CIRCLE
  5
174
330
1F
100
AcDbEntity
  8
0
  6
Continuous
 62
     7
370
    15
100
AcDbCircle
 10
-792.0256097561
 20
1474.970886956
 30
0.0
 40
8.74999999999985
  0
CIRCLE
  5
175
330
1F
100
AcDbEntity
  8
0
  6
Continuous
 62
     7
370
    15
100
AcDbCircle
 10
-792.0256097561
 20
1414.970886956
 30
0.0
 40
8.750000000000078
  0
CIRCLE
  5
176
330
1F
100
AcDbEntity
  8
0
  6
Continuous
 62
     7
370
    15
100
AcDbCircle
 10
-792.0256097561
 20
1414.970886956
 30
0.0
 40
14.99999999999988
  0
CIRCLE
  5
177
330
1F
100
AcDbEntity
  8
0
  6
Continuous
 62
     7
370
    15
100
AcDbCircle
 10
-792.0256097561
 20
1414.970886956
 30
0.0
 40
12.99999999999992
  0
CIRCLE
  5
178
330
1F
100
AcDbEntity
  8
0
  6
Continuous
 62
     7
370
    15
100
AcDbCircle
 10
-92.0256097561
 20
1414.970886956
 30
0.0
 40
15.00000000000003
  0
CIRCLE
  5
179
330
1F
100
AcDbEntity
  8
0
  6
Continuous
 62
     7
370
    15
100
AcDbCircle
 10
-92.0256097561
 20
1414.970886956
 30
0.0
 40
13.00000000000004
  0
CIRCLE
  5
17A
330
1F
100
AcDbEntity
  8
0
  6
Continuous
 62
     7
370
    15
100
AcDbCircle
 10
-92.0256097561
 20
1414.970886956
 30
0.0
 40
8.749999999999952
  0
CIRCLE
  5
17B
330
1F
100
AcDbEntity
  8
0
  6
Continuous
 62
     7
370
    15
100
AcDbCircle
 10
-92.0256097561
 20
1474.970886956
 30
0.0
 40
8.749999999999936
  0
CIRCLE
  5
17C
330
1F
100
AcDbEntity
  8
0
  6
Continuous
 62
     7
370
    15
100
AcDbCircle
 10
-92.0256097561
 20
1474.970886956
 30
0.0
 40
13.00000000000005
  0
CIRCLE
  5
17D
330
1F
100
AcDbEntity
  8
0
  6
Continuous
 62
     7
370
    15
100
AcDbCircle
 10
-92.0256097561
 20
1474.970886956
 30
0.0
 40
15.00000000000003
  0
ARC
  5
17E
330
1F
100
AcDbEntity
  8
0
  6
Continuous
 62
     7
370
    15
100
AcDbCircle
 10
-792.0256097561
 20
1474.970886956
 30
0.0
 40
29.0
100
AcDbArc
 50
301.1473899215
 51
180.0040336572
  0
ARC
  5
17F
330
1F
100
AcDbEntity
  8
0
  6
Continuous
 62
     7
370
    15
100
AcDbCircle
 10
-792.0256097561
 20
1474.970886956
 30
0.0
 40
29.00000000000004
100
AcDbArc
 50
180.0040336572
 51
238.8526100785
  0
ARC
  5
180
330
1F
100
AcDbEntity
  8
0
  6
Continuous
 62
     7
370
    15
100
AcDbCircle
 10
-92.0256097561
 20
1474.970886956
 30
0.0
 40
28.99999999999996
100
AcDbArc
 50
301.1473899215
 51
180.0040336572
  0
ARC
  5
181
330
1F
100
AcDbEntity
  8
0
  6
Continuous
 62
     7
370
    15
100
AcDbCircle
 10
-92.0256097561
 20
1474.970886956
 30
0.0
 40
29.00000000000005
100
AcDbArc
 50
180.0040336572
 51
238.8526100785
  0
LINE
  5
182
330
1F
100
AcDbEntity
  8
0
  6
Continuous
 62
     7
370
    15
100
AcDbLine
 10
-77.0256121403
 20
1474.9708905919
 30
0.0
 11
-77.0256121403
 21
1285.9708875521
 31
0.0
  0
LINE
  5
183
330
1F
100
AcDbEntity
  8
0
  6
Continuous
 62
     7
370
    15
100
AcDbLine
 10
-107.0255835301
 20
1285.9708875521
 30
0.0
 11
-107.0255835301
 21
1474.9708905919
 31
0.0
  0
LINE
  5
184
330
1F
100
AcDbEntity
  8
0
  6
Continuous
 62
     7
370
    15
100
AcDbLine
 10
-777.0256076699
 20
1474.9708905919
 30
0.0
 11
-777.0256076699
 21
1285.9708875521
 31
0.0
  0
LINE
  5
185
330
1F
100
AcDbEntity
  8
0
  6
Continuous
 62
     7
370
    15
100
AcDbLine
 10
-807.025608862
 20
1285.9708875521
 30
0.0
 11
-807.025608862
 21
1430.1258906825
 31
0.0
  0
LINE
  5
186
330
1F
100
AcDbEntity
  8
0
  6
Continuous
 62
     7
370
    15
100
AcDbLine
 10
-807.025608862
 20
1442.6158838077
 30
0.0
 11
-807.025608862
 21
1474.9708905919
 31
0.0
  0
LINE
  5
187
330
1F
100
AcDbEntity
  8
0
  6
Continuous
 62
     7
370
    15
100
AcDbLine
 10
1559.3039540997
 20
1416.3708876922
 30
0.0
 11
1567.303955411
 21
1416.3708876922
 31
0.0
  0
LINE
  5
188
330
1F
100
AcDbEntity
  8
0
  6
Continuous
 62
     7
370
    15
100
AcDbLine
 10
1567.303955411
 20
1456.3708886607
 30
0.0
 11
1559.3039540997
 21
1456.3708886607
 31
0.0
  0
LINE
  5
189
330
1F
100
AcDbEntity
  8
0
  6
Continuous
 62
     7
370
    15
100
AcDbLine
 10
1528.5039542666
 20
1452.3708880051
 30
0.0
 11
1526.7039545304
 21
1450.5708873375
 31
0.0
  0
LINE
  5
18A
330
1F
100
AcDbEntity
  8
0
  6
Continuous
 62
     7
370
    15
100
AcDbLine
 10
1526.7039545304
 20
1422.1708871527
 30
0.0
 11
1528.5039542666
 21
1420.3708864852
 31
0.0
  0
LINE
  5
18B
330
1F
100
AcDbEntity
  8
0
  6
Continuous
 62
     7
370
    15
100
AcDbLine
 10
1528.5039542666
 20
1420.3708864852
 30
0.0
 11
1559.3039540997
 21
1420.3708864852
 31
0.0
  0
LINE
  5
18C
330
1F
100
AcDbEntity
  8
0
  6
Continuous
 62
     7
370
    15
100
AcDbLine
 10
1559.3039540997
 20
1452.3708880051
 30
0.0
 11
1528.5039542666
 21
1452.3708880051
 31
0.0
  0
LINE
  5
18D
330
1F
100
AcDbEntity
  8
0
  6
Continuous
 62
     7
370
    15
100
AcDbLine
 10
1526.2039544484
 20
1428.8708888097
 30
0.0
 11
1526.7039545304
 21
1428.8708888097
 31
0.0
  0
LINE
  5
18E
330
1F
100
AcDbEntity
  8
0
  6
Continuous
 62
     7
370
    15
100
AcDbLine
 10
1526.7039545304
 20
1443.8708856805
 30
0.0
 11
1526.2039544484
 21
1443.8708856805
 31
0.0
  0
LINE
  5
18F
330
1F
100
AcDbEntity
  8
0
  6
Continuous
 62
     7
370
    15
100
AcDbLine
 10
1523.2039539567
 20
1411.3708868726
 30
0.0
 11
1525.2039542845
 21
1411.3708868726
 31
0.0
  0
LINE
  5
190
330
1F
100
AcDbEntity
  8
0
  6
Continuous
 62
     7
370
    15
100
AcDbLine
 10
1525.2039542845
 20
1461.3708838924
 30
0.0
 11
1523.2039539567
 21
1461.3708838924
 31
0.0
  0
LINE
  5
191
330
1F
100
AcDbEntity
  8
0
  6
Continuous
 62
     7
370
    15
100
AcDbLine
 10
1525.2039542845
 20
1411.3708868726
 30
0.0
 11
1526.2039544484
 21
1412.3708870365
 31
0.0
  0
LINE
  5
192
330
1F
100
AcDbEntity
  8
0
  6
Continuous
 62
     7
370
    15
100
AcDbLine
 10
1526.2039544484
 20
1460.3708893164
 30
0.0
 11
1525.2039542845
 21
1461.3708838924
 31
0.0
  0
LINE
  5
193
330
1F
100
AcDbEntity
  8
0
  6
Continuous
 62
     7
370
    15
100
AcDbLine
 10
1550.1779027707
 20
1355.4708868368
 30
0.0
 11
1548.6779034561
 21
1355.4708868368
 31
0.0
  0
LINE
  5
194
330
1F
100
AcDbEntity
  8
0
  6
Continuous
 62
     7
370
    15
100
AcDbLine
 10
1548.6779034561
 20
1326.4708876713
 30
0.0
 11
1550.1779027707
 21
1326.4708876713
 31
0.0
  0
LINE
  5
195
330
1F
100
AcDbEntity
  8
0
  6
Continuous
 62
     7
370
    15
100
AcDbLine
 10
1550.1779027707
 20
1300.4708871349
 30
0.0
 11
1548.6779034561
 21
1300.4708871349
 31
0.0
  0
LINE
  5
196
330
1F
100
AcDbEntity
  8
0
  6
Continuous
 62
     7
370
    15
100
AcDbLine
 10
1548.6779034561
 20
1271.4708879693
 30
0.0
 11
1550.1779027707
 21
1271.4708879693
 31
0.0
  0
LINE
  5
197
330
1F
100
AcDbEntity
  8
0
  6
Continuous
 62
     7
370
    15
100
AcDbLine
 10
1540.6779030761
 20
1354.9708858236
 30
0.0
 11
1538.6779029811
 21
1354.9708858236
 31
0.0
  0
LINE
  5
198
330
1F
100
AcDbEntity
  8
0
  6
Continuous
 62
     7
370
    15
100
AcDbLine
 10
1538.6779029811
 20
1326.9708886846
 30
0.0
 11
1540.6779030761
 21
1326.9708886846
 31
0.0
  0
LINE
  5
199
330
1F
100
AcDbEntity
  8
0
  6
Continuous
 62
     7
370
    15
100
AcDbLine
 10
1540.6779030761
 20
1299.9708861216
 30
0.0
 11
1538.6779029811
 21
1299.9708861216
 31
0.0
  0
LINE
  5
19A
330
1F
100
AcDbEntity
  8
0
  6
Continuous
 62
     7
370
    15
100
AcDbLine
 10
1538.6779029811
 20
1271.9708889826
 30
0.0
 11
1540.6779030761
 21
1271.9708889826
 31
0.0
  0
ARC
  5
19B
330
1F
100
AcDbEntity
  8
0
  6
Continuous
 62
     7
370
    15
100
AcDbCircle
 10
1536.7607457886
 20
1271.170886956
 30
0.0
 40
0.2000000000001302
100
AcDbArc
 50
225.0
 51
270.0
  0
ARC
  5
19C
330
1F
100
AcDbEntity
  8
0
  6
Continuous
 62
     7
370
    15
100
AcDbCircle
 10
1536.7607457886
 20
1300.770886956
 30
0.0
 40
0.1999999999998181
100
AcDbArc
 50
90.0
 51
135.0
  0
LINE
  5
19D
330
1F
100
AcDbEntity
  8
0
  6
Continuous
 62
     7
370
    15
100
AcDbLine
 10
1536.7607458918
 20
1270.970886956
 30
0.0
 11
1538.4779030881
 21
1270.970886956
 31
0.0
  0
LINE
  5
19E
330
1F
100
AcDbEntity
  8
0
  6
Continuous
 62
     7
370
    15
100
AcDbLine
 10
1538.4779030881
 20
1300.9708881481
 30
0.0
 11
1536.7607458918
 21
1300.9708881481
 31
0.0
  0
ARC
  5
19F
330
1F
100
AcDbEntity
  8
0
  6
Continuous
 62
     7
370
    15
100
AcDbCircle
 10
1538.4779030761
 20
1300.770886956
 30
0.0
 40
0.2000000000000455
100
AcDbArc
 50
0.0
 51
90.0
  0
ARC
  5
1A0
330
1F
100
AcDbEntity
  8
0
  6
Continuous
 62
     7
370
    15
100
AcDbCircle
 10
1538.4779030761
 20
1271.170886956
 30
0.0
 40
0.2000000000000455
100
AcDbArc
 50
270.0
 51
0.0
  0
LINE
  5
1A1
330
1F
100
AcDbEntity
  8
0
  6
Continuous
 62
     7
370
    15
100
AcDbLine
 10
1536.6193245588
 20
1300.9123116835
 30
0.0
 11
1534.7364818169
 21
1299.0294680103
 31
0.0
  0
LINE
  5
1A2
330
1F
100
AcDbEntity
  8
0
  6
Continuous
 62
     7
370
    15
100
AcDbLine
 10
1534.7364818169
 20
1272.9123070939
 30
0.0
 11
1536.6193245588
 21
1271.0294634207
 31
0.0
  0
ARC
  5
1A3
330
1F
100
AcDbEntity
  8
0
  6
Continuous
 62
     7
370
    15
100
AcDbCircle
 10
1534.8779030761
 20
1298.8880442436
 30
0.0
 40
0.2000000000000455
100
AcDbArc
 50
135.0
 51
180.0
  0
ARC
  5
1A4
330
1F
100
AcDbEntity
  8
0
  6
Continuous
 62
     7
370
    15
100
AcDbCircle
 10
1534.8779030761
 20
1273.0537296685
 30
0.0
 40
0.2000000000001302
100
AcDbArc
 50
180.0
 51
225.0
  0
ARC
  5
1A5
330
1F
100
AcDbEntity
  8
0
  6
Continuous
 62
     7
370
    15
100
AcDbCircle
 10
1536.7607457886
 20
1326.170886956
 30
0.0
 40
0.2000000000000455
100
AcDbArc
 50
225.0
 51
270.0
  0
ARC
  5
1A6
330
1F
100
AcDbEntity
  8
0
  6
Continuous
 62
     7
370
    15
100
AcDbCircle
 10
1536.7607457886
 20
1355.770886956
 30
0.0
 40
0.2000000000001302
100
AcDbArc
 50
90.0
 51
135.0
  0
LINE
  5
1A7
330
1F
100
AcDbEntity
  8
0
  6
Continuous
 62
     7
370
    15
100
AcDbLine
 10
1536.7607458918
 20
1325.970886658
 30
0.0
 11
1538.4779030881
 21
1325.970886658
 31
0.0
  0
LINE
  5
1A8
330
1F
100
AcDbEntity
  8
0
  6
Continuous
 62
     7
370
    15
100
AcDbLine
 10
1538.4779030881
 20
1355.9708878501
 30
0.0
 11
1536.7607458918
 21
1355.9708878501
 31
0.0
  0
ARC
  5
1A9
330
1F
100
AcDbEntity
  8
0
  6
Continuous
 62
     7
370
    15
100
AcDbCircle
 10
1538.4779030761
 20
1355.770886956
 30
0.0
 40
0.2000000000000455
100
AcDbArc
 50
0.0
 51
90.0
  0
ARC
  5
1AA
330
1F
100
AcDbEntity
  8
0
  6
Continuous
 62
     7
370
    15
100
AcDbCircle
 10
1538.4779030761
 20
1326.170886956
 30
0.0
 40
0.2000000000000455
100
AcDbArc
 50
270.0
 51
0.0
  0
LINE
  5
1AB
330
1F
100
AcDbEntity
  8
0
  6
Continuous
 62
     7
370
    15
100
AcDbLine
 10
1536.6193245588
 20
1355.9123076602
 30
0.0
 11
1534.7364818169
 21
1354.0294639869
 31
0.0
  0
LINE
  5
1AC
330
1F
100
AcDbEntity
  8
0
  6
Continuous
 62
     7
370
    15
100
AcDbLine
 10
1534.7364818169
 20
1327.9123067959
 30
0.0
 11
1536.6193245588
 21
1326.0294631227
 31
0.0
  0
ARC
  5
1AD
330
1F
100
AcDbEntity
  8
0
  6
Continuous
 62
     7
370
    15
100
AcDbCircle
 10
1534.8779030761
 20
1353.8880442436
 30
0.0
 40
0.2000000000000455
100
AcDbArc
 50
135.0
 51
180.0
  0
ARC
  5
1AE
330
1F
100
AcDbEntity
  8
0
  6
Continuous
 62
     7
370
    15
100
AcDbCircle
 10
1534.8779030761
 20
1328.0537296685
 30
0.0
 40
0.2000000000000455
100
AcDbArc
 50
180.0
 51
225.0
  0
LINE
  5
1AF
330
1F
100
AcDbEntity
  8
0
  6
Continuous
 62
     7
370
    15
100
AcDbLine
 10
1569.2211108706
 20
1451.3708859785
 30
0.0
 11
1567.5039550713
 21
1451.3708859785
 31
0.0
  0
LINE
  5
1B0
330
1F
100
AcDbEntity
  8
0
  6
Continuous
 62
     7
370
    15
100
AcDbLine
 10
1567.5039550713
 20
1421.3708866491
 30
0.0
 11
1569.2211108706
 21
1421.3708866491
 31
0.0
  0
ARC
  5
1B1
330
1F
100
AcDbEntity
  8
0
  6
Continuous
 62
     7
370
    15
100
AcDbCircle
 10
1567.5039544994
 20
1421.570886956
 30
0.0
 40
0.2000000000000455
100
AcDbArc
 50
180.0
 51
270.0
  0
ARC
  5
1B2
330
1F
100
AcDbEntity
  8
0
  6
Continuous
 62
     7
370
    15
100
AcDbCircle
 10
1567.5039544994
 20
1451.170886956
 30
0.0
 40
0.1999999999998181
100
AcDbArc
 50
90.0
 51
180.0
  0
ARC
  5
1B3
330
1F
100
AcDbEntity
  8
0
  6
Continuous
 62
     7
370
    15
100
AcDbCircle
 10
1569.2211117869
 20
1451.170886956
 30
0.0
 40
0.1999999999999695
100
AcDbArc
 50
45.0
 51
90.0
  0
ARC
  5
1B4
330
1F
100
AcDbEntity
  8
0
  6
Continuous
 62
     7
370
    15
100
AcDbCircle
 10
1569.2211117869
 20
1421.570886956
 30
0.0
 40
0.2000000000000455
100
AcDbArc
 50
270.0
 51
315.0
  0
LINE
  5
1B5
330
1F
100
AcDbEntity
  8
0
  6
Continuous
 62
     7
370
    15
100
AcDbLine
 10
1569.3625340662
 20
1421.4294649764
 30
0.0
 11
1571.2453758767
 21
1423.3123086496
 31
0.0
  0
LINE
  5
1B6
330
1F
100
AcDbEntity
  8
0
  6
Continuous
 62
     7
370
    15
100
AcDbLine
 10
1571.2453758767
 20
1449.4294658406
 30
0.0
 11
1569.3625340662
 21
1451.3123095139
 31
0.0
  0
ARC
  5
1B7
330
1F
100
AcDbEntity
  8
0
  6
Continuous
 62
     7
370
    15
100
AcDbCircle
 10
1571.1039544994
 20
1423.4537296685
 30
0.0
 40
0.2000000000000455
100
AcDbArc
 50
315.0
 51
0.0
  0
ARC
  5
1B8
330
1F
100
AcDbEntity
  8
0
  6
Continuous
 62
     7
370
    15
100
AcDbCircle
 10
1571.1039544994
 20
1449.2880442436
 30
0.0
 40
0.2000000000000455
100
AcDbArc
 50
0.0
 51
45.0
  0
LINE
  5
1B9
330
1F
100
AcDbEntity
  8
0
  6
Continuous
 62
     7
370
    15
100
AcDbLine
 10
1550.3779033622
 20
1355.9708878501
 30
0.0
 11
1550.1779027707
 21
1355.7708881899
 31
0.0
  0
LINE
  5
1BA
330
1F
100
AcDbEntity
  8
0
  6
Continuous
 62
     7
370
    15
100
AcDbLine
 10
1550.1779027707
 20
1326.1708900436
 30
0.0
 11
1550.3779033622
 21
1325.970886658
 31
0.0
  0
LINE
  5
1BB
330
1F
100
AcDbEntity
  8
0
  6
Continuous
 62
     7
370
    15
100
AcDbLine
 10
1559.4779028049
 20
1355.9708878501
 30
0.0
 11
1550.3779033622
 21
1355.9708878501
 31
0.0
  0
LINE
  5
1BC
330
1F
100
AcDbEntity
  8
0
  6
Continuous
 62
     7
370
    15
100
AcDbLine
 10
1550.3779033622
 20
1325.970886658
 30
0.0
 11
1559.4779028049
 21
1325.970886658
 31
0.0
  0
LINE
  5
1BD
330
1F
100
AcDbEntity
  8
0
  6
Continuous
 62
     7
370
    15
100
AcDbLine
 10
1559.4779028049
 20
1325.970886658
 30
0.0
 11
1559.6779024652
 21
1326.1708900436
 31
0.0
  0
LINE
  5
1BE
330
1F
100
AcDbEntity
  8
0
  6
Continuous
 62
     7
370
    15
100
AcDbLine
 10
1559.6779024652
 20
1355.7708881899
 30
0.0
 11
1559.4779028049
 21
1355.9708878501
 31
0.0
  0
LINE
  5
1BF
330
1F
100
AcDbEntity
  8
0
  6
Continuous
 62
     7
370
    15
100
AcDbLine
 10
1550.3779033622
 20
1300.9708881481
 30
0.0
 11
1550.1779027707
 21
1300.7708847626
 31
0.0
  0
LINE
  5
1C0
330
1F
100
AcDbEntity
  8
0
  6
Continuous
 62
     7
370
    15
100
AcDbLine
 10
1550.1779027707
 20
1271.1708903416
 30
0.0
 11
1550.3779033622
 21
1270.970886956
 31
0.0
  0
LINE
  5
1C1
330
1F
100
AcDbEntity
  8
0
  6
Continuous
 62
     7
370
    15
100
AcDbLine
 10
1559.4779028049
 20
1300.9708881481
 30
0.0
 11
1550.3779033622
 21
1300.9708881481
 31
0.0
  0
LINE
  5
1C2
330
1F
100
AcDbEntity
  8
0
  6
Continuous
 62
     7
370
    15
100
AcDbLine
 10
1550.3779033622
 20
1270.970886956
 30
0.0
 11
1559.4779028049
 21
1270.970886956
 31
0.0
  0
LINE
  5
1C3
330
1F
100
AcDbEntity
  8
0
  6
Continuous
 62
     7
370
    15
100
AcDbLine
 10
1559.4779028049
 20
1270.970886956
 30
0.0
 11
1559.6779024652
 21
1271.1708903416
 31
0.0
  0
LINE
  5
1C4
330
1F
100
AcDbEntity
  8
0
  6
Continuous
 62
     7
370
    15
100
AcDbLine
 10
1559.6779024652
 20
1300.7708847626
 30
0.0
 11
1559.4779028049
 21
1300.9708881481
 31
0.0
  0
LINE
  5
1C5
330
1F
100
AcDbEntity
  8
0
  6
Continuous
 62
     7
370
    15
100
AcDbLine
 10
1568.6779039404
 20
1355.9708878501
 30
0.0
 11
1565.6779034487
 21
1355.9708878501
 31
0.0
  0
LINE
  5
1C6
330
1F
100
AcDbEntity
  8
0
  6
Continuous
 62
     7
370
    15
100
AcDbLine
 10
1565.6779034487
 20
1325.970886658
 30
0.0
 11
1568.6779039404
 21
1325.970886658
 31
0.0
  0
LINE
  5
1C7
330
1F
100
AcDbEntity
  8
0
  6
Continuous
 62
     7
370
    15
100
AcDbLine
 10
1568.6779039404
 20
1325.970886658
 30
0.0
 11
1570.6779024056
 21
1327.9708832606
 31
0.0
  0
LINE
  5
1C8
330
1F
100
AcDbEntity
  8
0
  6
Continuous
 62
     7
370
    15
100
AcDbLine
 10
1570.6779024056
 20
1353.9708875223
 30
0.0
 11
1568.6779039404
 21
1355.9708878501
 31
0.0
  0
LINE
  5
1C9
330
1F
100
AcDbEntity
  8
0
  6
Continuous
 62
     7
370
    15
100
AcDbLine
 10
1568.6779039404
 20
1300.9708881481
 30
0.0
 11
1565.6779034487
 21
1300.9708881481
 31
0.0
  0
LINE
  5
1CA
330
1F
100
AcDbEntity
  8
0
  6
Continuous
 62
     7
370
    15
100
AcDbLine
 10
1565.6779034487
 20
1270.970886956
 30
0.0
 11
1568.6779039404
 21
1270.970886956
 31
0.0
  0
LINE
  5
1CB
330
1F
100
AcDbEntity
  8
0
  6
Continuous
 62
     7
370
    15
100
AcDbLine
 10
1568.6779039404
 20
1270.970886956
 30
0.0
 11
1570.6779024056
 21
1272.9708835586
 31
0.0
  0
LINE
  5
1CC
330
1F
100
AcDbEntity
  8
0
  6
Continuous
 62
     7
370
    15
100
AcDbLine
 10
1570.6779024056
 20
1298.970884095
 30
0.0
 11
1568.6779039404
 21
1300.9708881481
 31
0.0
  0
LINE
  5
1CD
330
1F
100
AcDbEntity
  8
0
  6
Continuous
 62
     7
370
    15
100
AcDbLine
 10
1568.6779039404
 20
1489.9708837374
 30
0.0
 11
1565.6779034487
 21
1489.9708837374
 31
0.0
  0
LINE
  5
1CE
330
1F
100
AcDbEntity
  8
0
  6
Continuous
 62
     7
370
    15
100
AcDbLine
 10
1565.6779034487
 20
1459.9708899959
 30
0.0
 11
1568.6779039404
 21
1459.9708899959
 31
0.0
  0
LINE
  5
1CF
330
1F
100
AcDbEntity
  8
0
  6
Continuous
 62
     7
370
    15
100
AcDbLine
 10
1568.6779039404
 20
1459.9708899959
 30
0.0
 11
1570.6779024056
 21
1461.9708865984
 31
0.0
  0
LINE
  5
1D0
330
1F
100
AcDbEntity
  8
0
  6
Continuous
 62
     7
370
    15
100
AcDbLine
 10
1570.6779024056
 20
1487.9708871349
 30
0.0
 11
1568.6779039404
 21
1489.9708837374
 31
0.0
  0
LINE
  5
1D1
330
1F
100
AcDbEntity
  8
0
  6
Continuous
 62
     7
370
    15
100
AcDbLine
 10
1565.6779034487
 20
1399.970887146
 30
0.0
 11
1568.6779039404
 21
1399.970887146
 31
0.0
  0
LINE
  5
1D2
330
1F
100
AcDbEntity
  8
0
  6
Continuous
 62
     7
370
    15
100
AcDbLine
 10
1568.6779039404
 20
1399.970887146
 30
0.0
 11
1570.6779024056
 21
1401.9708870082
 31
0.0
  0
LINE
  5
1D3
330
1F
100
AcDbEntity
  8
0
  6
Continuous
 62
     7
370
    15
100
AcDbLine
 10
1530.6779032996
 20
1407.9708870604
 30
0.0
 11
1531.6779034636
 21
1406.9708868964
 31
0.0
  0
LINE
  5
1D4
330
1F
100
AcDbEntity
  8
0
  6
Continuous
 62
     7
370
    15
100
AcDbLine
 10
1531.6779034636
 20
1406.9708868964
 30
0.0
 11
1559.4779028049
 21
1406.9708868964
 31
0.0
  0
LINE
  5
1D5
330
1F
100
AcDbEntity
  8
0
  6
Continuous
 62
     7
370
    15
100
AcDbLine
 10
1559.4779028049
 20
1406.9708868964
 30
0.0
 11
1559.6779024652
 21
1407.1708865567
 31
0.0
  0
ARC
  5
1D6
330
1F
100
AcDbEntity
  8
0
  6
Continuous
 62
     7
370
    15
100
AcDbCircle
 10
1530.7607457886
 20
1460.170886956
 30
0.0
 40
0.2000000000000455
100
AcDbArc
 50
225.0
 51
270.0
  0
ARC
  5
1D7
330
1F
100
AcDbEntity
  8
0
  6
Continuous
 62
     7
370
    15
100
AcDbCircle
 10
1530.7607457886
 20
1489.770886956
 30
0.0
 40
0.2000000000000455
100
AcDbArc
 50
90.0
 51
135.0
  0
LINE
  5
1D8
330
1F
100
AcDbEntity
  8
0
  6
Continuous
 62
     7
370
    15
100
AcDbLine
 10
1530.760745374
 20
1459.9708899959
 30
0.0
 11
1531.477902872
 21
1459.9708899959
 31
0.0
  0
LINE
  5
1D9
330
1F
100
AcDbEntity
  8
0
  6
Continuous
 62
     7
370
    15
100
AcDbLine
 10
1531.477902872
 20
1489.9708837374
 30
0.0
 11
1530.760745374
 21
1489.9708837374
 31
0.0
  0
ARC
  5
1DA
330
1F
100
AcDbEntity
  8
0
  6
Continuous
 62
     7
370
    15
100
AcDbCircle
 10
1531.4779030761
 20
1489.770886956
 30
0.0
 40
0.2000000000000455
100
AcDbArc
 50
0.0
 51
90.0
  0
ARC
  5
1DB
330
1F
100
AcDbEntity
  8
0
  6
Continuous
 62
     7
370
    15
100
AcDbCircle
 10
1531.4779030761
 20
1460.170886956
 30
0.0
 40
0.2000000000000455
100
AcDbArc
 50
270.0
 51
0.0
  0
LINE
  5
1DC
330
1F
100
AcDbEntity
  8
0
  6
Continuous
 62
     7
370
    15
100
AcDbLine
 10
1530.619324041
 20
1489.9123072727
 30
0.0
 11
1528.7364812991
 21
1488.0294635995
 31
0.0
  0
LINE
  5
1DD
330
1F
100
AcDbEntity
  8
0
  6
Continuous
 62
     7
370
    15
100
AcDbLine
 10
1528.7364812991
 20
1461.9123101338
 30
0.0
 11
1530.619324041
 21
1460.0294664605
 31
0.0
  0
ARC
  5
1DE
330
1F
100
AcDbEntity
  8
0
  6
Continuous
 62
     7
370
    15
100
AcDbCircle
 10
1528.8779030761
 20
1487.8880442436
 30
0.0
 40
0.2000000000001302
100
AcDbArc
 50
135.0
 51
180.0
  0
ARC
  5
1DF
330
1F
100
AcDbEntity
  8
0
  6
Continuous
 62
     7
370
    15
100
AcDbCircle
 10
1528.8779030761
 20
1462.0537296685
 30
0.0
 40
0.2000000000001302
100
AcDbArc
 50
180.0
 51
225.0
  0
LINE
  5
1E0
330
1F
100
AcDbEntity
  8
0
  6
Continuous
 62
     7
370
    15
100
AcDbLine
 10
1532.1779026142
 20
1484.7208842738
 30
0.0
 11
1531.6779034636
 21
1484.7208842738
 31
0.0
  0
LINE
  5
1E1
330
1F
100
AcDbEntity
  8
0
  6
Continuous
 62
     7
370
    15
100
AcDbLine
 10
1531.6779034636
 20
1465.2208894594
 30
0.0
 11
1532.1779026142
 21
1465.2208894594
 31
0.0
  0
LINE
  5
1E2
330
1F
100
AcDbEntity
  8
0
  6
Continuous
 62
     7
370
    15
100
AcDbLine
 10
1553.1779032624
 20
1503.9708897575
 30
0.0
 11
1551.6779030165
 21
1503.9708897575
 31
0.0
  0
LINE
  5
1E3
330
1F
100
AcDbEntity
  8
0
  6
Continuous
 62
     7
370
    15
100
AcDbLine
 10
1533.6779028601
 20
1503.9708897575
 30
0.0
 11
1532.1779026142
 21
1503.9708897575
 31
0.0
  0
ARC
  5
1E4
330
1F
100
AcDbEntity
  8
0
  6
Continuous
 62
     7
370
    15
100
AcDbCircle
 10
1542.7039544994
 20
1513.570886956
 30
0.0
 40
12.50000000000006
100
AcDbArc
 50
230.1746287392
 51
309.8253712608
  0
LINE
  5
1E5
330
1F
100
AcDbEntity
  8
0
  6
Continuous
 62
     7
370
    15
100
AcDbLine
 10
1534.6983315847
 20
1503.9708897575
 30
0.0
 11
1533.6779028601
 21
1503.9708897575
 31
0.0
  0
LINE
  5
1E6
330
1F
100
AcDbEntity
  8
0
  6
Continuous
 62
     7
370
    15
100
AcDbLine
 10
1551.6779030165
 20
1503.9708897575
 30
0.0
 11
1550.7095771334
 21
1503.9708897575
 31
0.0
  0
LINE
  5
1E7
330
1F
100
AcDbEntity
  8
0
  6
Continuous
 62
     7
370
    15
100
AcDbLine
 10
1564.327902948
 20
1270.970886956
 30
0.0
 11
1565.6779034487
 21
1270.970886956
 31
0.0
  0
LINE
  5
1E8
330
1F
100
AcDbEntity
  8
0
  6
Continuous
 62
     7
370
    15
100
AcDbLine
 10
1559.6779024652
 20
1270.970886956
 30
0.0
 11
1561.048526173
 21
1270.970886956
 31
0.0
  0
LINE
  5
1E9
330
1F
100
AcDbEntity
  8
0
  6
Continuous
 62
     7
370
    15
100
AcDbLine
 10
1565.6779034487
 20
1489.9708837374
 30
0.0
 11
1559.6779024652
 21
1489.9708837374
 31
0.0
  0
LINE
  5
1EA
330
1F
100
AcDbEntity
  8
0
  6
Continuous
 62
     7
370
    15
100
AcDbLine
 10
1559.3779029748
 20
1489.9708837374
 30
0.0
 11
1553.9779028347
 21
1489.9708837374
 31
0.0
  0
LINE
  5
1EB
330
1F
100
AcDbEntity
  8
0
  6
Continuous
 62
     7
370
    15
100
AcDbLine
 10
1553.9779028347
 20
1459.9708899959
 30
0.0
 11
1559.3779029748
 21
1459.9708899959
 31
0.0
  0
LINE
  5
1EC
330
1F
100
AcDbEntity
  8
0
  6
Continuous
 62
     7
370
    15
100
AcDbLine
 10
1553.9779028347
 20
1489.9708837374
 30
0.0
 11
1553.6779033444
 21
1489.6708861097
 31
0.0
  0
LINE
  5
1ED
330
1F
100
AcDbEntity
  8
0
  6
Continuous
 62
     7
370
    15
100
AcDbLine
 10
1553.6779033444
 20
1460.2708876236
 30
0.0
 11
1553.9779028347
 21
1459.9708899959
 31
0.0
  0
LINE
  5
1EE
330
1F
100
AcDbEntity
  8
0
  6
Continuous
 62
     7
370
    15
100
AcDbLine
 10
1559.3779029748
 20
1459.9708899959
 30
0.0
 11
1559.6779024652
 21
1460.2708876236
 31
0.0
  0
LINE
  5
1EF
330
1F
100
AcDbEntity
  8
0
  6
Continuous
 62
     7
370
    15
100
AcDbLine
 10
1559.6779024652
 20
1489.6708861097
 30
0.0
 11
1559.3779029748
 21
1489.9708837374
 31
0.0
  0
LINE
  5
1F0
330
1F
100
AcDbEntity
  8
0
  6
Continuous
 62
     7
370
    15
100
AcDbLine
 10
1553.6779033444
 20
1484.7208842738
 30
0.0
 11
1553.1779032624
 21
1484.7208842738
 31
0.0
  0
LINE
  5
1F1
330
1F
100
AcDbEntity
  8
0
  6
Continuous
 62
     7
370
    15
100
AcDbLine
 10
1553.1779032624
 20
1465.2208894594
 30
0.0
 11
1553.6779033444
 21
1465.2208894594
 31
0.0
  0
LINE
  5
1F2
330
1F
100
AcDbEntity
  8
0
  6
Continuous
 62
     7
370
    15
100
AcDbLine
 10
1548.6779034561
 20
1393.970886861
 30
0.0
 11
1540.6779030761
 21
1393.970886861
 31
0.0
  0
LINE
  5
1F3
330
1F
100
AcDbEntity
  8
0
  6
Continuous
 62
     7
370
    15
100
AcDbLine
 10
1540.6779030761
 20
1393.970886861
 30
0.0
 11
1540.6779030761
 21
1395.970886956
 31
0.0
  0
LINE
  5
1F4
330
1F
100
AcDbEntity
  8
0
  6
Continuous
 62
     7
370
    15
100
AcDbLine
 10
1540.6779030761
 20
1395.970886956
 30
0.0
 11
1548.6779034561
 21
1395.970886956
 31
0.0
  0
LINE
  5
1F5
330
1F
100
AcDbEntity
  8
0
  6
Continuous
 62
     7
370
    15
100
AcDbLine
 10
1548.6779034561
 20
1395.970886956
 30
0.0
 11
1548.6779034561
 21
1393.970886861
 31
0.0
  0
LINE
  5
1F6
330
1F
100
AcDbEntity
  8
0
  6
Continuous
 62
     7
370
    15
100
AcDbLine
 10
1548.6779034561
 20
1393.970886861
 30
0.0
 11
1548.6779034561
 21
-652.0292103187
 31
0.0
  0
LINE
  5
1F7
330
1F
100
AcDbEntity
  8
0
  6
Continuous
 62
     7
370
    15
100
AcDbLine
 10
1540.6779030761
 20
-652.0292103187
 30
0.0
 11
1548.6779034561
 21
-652.0292103187
 31
0.0
  0
LINE
  5
1F8
330
1F
100
AcDbEntity
  8
0
  6
Continuous
 62
     7
370
    15
100
AcDbLine
 10
1540.6779030761
 20
1393.970886861
 30
0.0
 11
1540.6779030761
 21
-652.0292103187
 31
0.0
  0
LINE
  5
1F9
330
1F
100
AcDbEntity
  8
0
  6
Continuous
 62
     7
370
    15
100
AcDbLine
 10
1548.6779034561
 20
-654.0290653602
 30
0.0
 11
1540.6779030761
 21
-654.0290653602
 31
0.0
  0
LINE
  5
1FA
330
1F
100
AcDbEntity
  8
0
  6
Continuous
 62
     7
370
    15
100
AcDbLine
 10
1548.6779034561
 20
-652.0292103187
 30
0.0
 11
1548.6779034561
 21
-654.0290653602
 31
0.0
  0
LINE
  5
1FB
330
1F
100
AcDbEntity
  8
0
  6
Continuous
 62
     7
370
    15
100
AcDbLine
 10
1540.6779030761
 20
-654.0290653602
 30
0.0
 11
1540.6779030761
 21
-652.0292103187
 31
0.0
  0
LINE
  5
1FC
330
1F
100
AcDbEntity
  8
0
  6
Continuous
 62
     7
370
    15
100
AcDbLine
 10
1567.303955411
 20
1456.3708886607
 30
0.0
 11
1567.303955411
 21
1416.3708876922
 31
0.0
  0
LINE
  5
1FD
330
1F
100
AcDbEntity
  8
0
  6
Continuous
 62
     7
370
    15
100
AcDbLine
 10
1559.3039540997
 20
1456.3708886607
 30
0.0
 11
1559.3039540997
 21
1416.3708876922
 31
0.0
  0
LINE
  5
1FE
330
1F
100
AcDbEntity
  8
0
  6
Continuous
 62
     7
370
    15
100
AcDbLine
 10
1528.5039542666
 20
1452.3708880051
 30
0.0
 11
1528.5039542666
 21
1420.3708864852
 31
0.0
  0
LINE
  5
1FF
330
1F
100
AcDbEntity
  8
0
  6
Continuous
 62
     7
370
    15
100
AcDbLine
 10
1526.7039545304
 20
1422.1708871527
 30
0.0
 11
1526.7039545304
 21
1450.5708873375
 31
0.0
  0
LINE
  5
200
330
1F
100
AcDbEntity
  8
0
  6
Continuous
 62
     7
370
    15
100
AcDbLine
 10
1530.1039543426
 20
1436.3708853825
 30
0.0
 11
1530.3094851276
 21
1437.7910740777
 31
0.0
  0
SPLINE
  5
201
330
1F
100
AcDbEntity
  8
0
  6
Continuous
 62
     7
370
    15
100
AcDbSpline
210
0.0
220
0.0
230
1.0
 70
     8
 71
     3
 72
     9
 73
     5
 74
     0
 42
0.00000001
 43
0.00000001
 40
0.0
 40
0.0
 40
0.0
 40
0.0
 40
0.4131069906119217
 40
0.9999999999999999
 40
0.9999999999999999
 40
0.9999999999999999
 40
0.9999999999999999
 10
1530.472206739205
 20
1433.800669769831
 30
0.0
 10
1530.366657939249
 20
1434.140489555493
 30
0.0
 10
1530.111158026745
 20
1434.963084654063
 30
0.0
 10
1530.106618537264
 20
1435.850227467151
 30
0.0
 10
1530.103954342622
 20
1436.370885382481
 30
0.0
  0
LINE
  5
202
330
1F
100
AcDbEntity
  8
0
  6
Continuous
 62
     7
370
    15
100
AcDbLine
 10
1525.2039542845
 20
1411.3708868726
 30
0.0
 11
1525.2039542845
 21
1461.3708838924
 31
0.0
  0
LINE
  5
203
330
1F
100
AcDbEntity
  8
0
  6
Continuous
 62
     7
370
    15
100
AcDbLine
 10
1523.2039539567
 20
1461.3708838924
 30
0.0
 11
1523.2039539567
 21
1411.3708868726
 31
0.0
  0
LINE
  5
204
330
1F
100
AcDbEntity
  8
0
  6
Continuous
 62
     7
370
    15
100
AcDbLine
 10
1526.2039544484
 20
1460.3708893164
 30
0.0
 11
1526.2039544484
 21
1412.3708870365
 31
0.0
  0
CIRCLE
  5
205
330
1F
100
AcDbEntity
  8
0
  6
Continuous
 62
     7
370
    15
100
AcDbCircle
 10
1542.7039544994
 20
1436.370886956
 30
0.0
 40
12.49999999999996
  0
CIRCLE
  5
206
330
1F
100
AcDbEntity
  8
0
  6
Continuous
 62
     7
370
    15
100
AcDbCircle
 10
1542.7039544994
 20
1436.370886956
 30
0.0
 40
12.29999999999997
  0
LINE
  5
207
330
1F
100
AcDbEntity
  8
0
  6
Continuous
 62
     7
370
    15
100
AcDbLine
 10
1540.1779030524
 20
-644.029074897
 30
0.0
 11
1537.1779029681
 21
-644.029074897
 31
0.0
  0
LINE
  5
208
330
1F
100
AcDbEntity
  8
0
  6
Continuous
 62
     7
370
    15
100
AcDbLine
 10
1540.1779030524
 20
-644.029074897
 30
0.0
 11
1540.1779030524
 21
-658.0290138618
 31
0.0
  0
LINE
  5
209
330
1F
100
AcDbEntity
  8
0
  6
Continuous
 62
     7
370
    15
100
AcDbLine
 10
1549.1779035381
 20
-644.029074897
 30
0.0
 11
1549.1779035381
 21
-658.0290138618
 31
0.0
  0
LINE
  5
20A
330
1F
100
AcDbEntity
  8
0
  6
Continuous
 62
     7
370
    15
100
AcDbLine
 10
1552.1779030985
 20
-644.029074897
 30
0.0
 11
1549.1779035381
 21
-644.029074897
 31
0.0
  0
LINE
  5
20B
330
1F
100
AcDbEntity
  8
0
  6
Continuous
 62
     7
370
    15
100
AcDbLine
 10
1554.4779029167
 20
-661.8291675941
 30
0.0
 11
1554.6779035083
 21
-661.8291675941
 31
0.0
  0
LINE
  5
20C
330
1F
100
AcDbEntity
  8
0
  6
Continuous
 62
     7
370
    15
100
AcDbLine
 10
1554.4779029167
 20
-662.029200782
 30
0.0
 11
1554.6779035083
 21
-661.8291675941
 31
0.0
  0
LINE
  5
20D
330
1F
100
AcDbEntity
  8
0
  6
Continuous
 62
     7
370
    15
100
AcDbLine
 10
1554.4779029167
 20
-661.8291675941
 30
0.0
 11
1554.4779029167
 21
-662.029200782
 31
0.0
  0
LINE
  5
20E
330
1F
100
AcDbEntity
  8
0
  6
Continuous
 62
     7
370
    15
100
AcDbLine
 10
1534.8779031499
 20
-642.0292198555
 30
0.0
 11
1534.8779031499
 21
-644.5290386574
 31
0.0
  0
LINE
  5
20F
330
1F
100
AcDbEntity
  8
0
  6
Continuous
 62
     7
370
    15
100
AcDbLine
 10
1534.8779031499
 20
-644.5290386574
 30
0.0
 11
1534.677903024
 21
-644.5290386574
 31
0.0
  0
LINE
  5
210
330
1F
100
AcDbEntity
  8
0
  6
Continuous
 62
     7
370
    15
100
AcDbLine
 10
1534.677903024
 20
-644.5290386574
 30
0.0
 11
1534.677903024
 21
-642.2290146248
 31
0.0
  0
LINE
  5
211
330
1F
100
AcDbEntity
  8
0
  6
Continuous
 62
     7
370
    15
100
AcDbLine
 10
1534.8779031499
 20
-642.0292198555
 30
0.0
 11
1534.677903024
 21
-642.2290146248
 31
0.0
  0
LINE
  5
212
330
1F
100
AcDbEntity
  8
0
  6
Continuous
 62
     7
370
    15
100
AcDbLine
 10
1537.1779029681
 20
-658.0290138618
 30
0.0
 11
1552.1779030985
 21
-658.0290138618
 31
0.0
  0
LINE
  5
213
330
1F
100
AcDbEntity
  8
0
  6
Continuous
 62
     7
370
    15
100
AcDbLine
 10
1552.3779027587
 20
-658.2290470497
 30
0.0
 11
1552.1779030985
 21
-658.0290138618
 31
0.0
  0
LINE
  5
214
330
1F
100
AcDbEntity
  8
0
  6
Continuous
 62
     7
370
    15
100
AcDbLine
 10
1552.3779027587
 20
-658.2290470497
 30
0.0
 11
1536.977903075
 21
-658.2290470497
 31
0.0
  0
LINE
  5
215
330
1F
100
AcDbEntity
  8
0
  6
Continuous
 62
     7
370
    15
100
AcDbLine
 10
1537.1779029681
 20
-658.0290138618
 30
0.0
 11
1536.977903075
 21
-658.2290470497
 31
0.0
  0
LINE
  5
216
330
1F
100
AcDbEntity
  8
0
  6
Continuous
 62
     7
370
    15
100
AcDbLine
 10
1552.3779027587
 20
-642.0292198555
 30
0.0
 11
1552.3779027587
 21
-644.5290386574
 31
0.0
  0
LINE
  5
217
330
1F
100
AcDbEntity
  8
0
  6
Continuous
 62
     7
370
    15
100
AcDbLine
 10
1554.4779029167
 20
-642.0292198555
 30
0.0
 11
1552.3779027587
 21
-642.0292198555
 31
0.0
  0
LINE
  5
218
330
1F
100
AcDbEntity
  8
0
  6
Continuous
 62
     7
370
    15
100
AcDbLine
 10
1554.4779029167
 20
-644.5290386574
 30
0.0
 11
1554.4779029167
 21
-642.0292198555
 31
0.0
  0
LINE
  5
219
330
1F
100
AcDbEntity
  8
0
  6
Continuous
 62
     7
370
    15
100
AcDbLine
 10
1554.4779029167
 20
-644.5290386574
 30
0.0
 11
1552.3779027587
 21
-644.5290386574
 31
0.0
  0
LINE
  5
21A
330
1F
100
AcDbEntity
  8
0
  6
Continuous
 62
     7
370
    15
100
AcDbLine
 10
1537.1779029681
 20
-642.2290146248
 30
0.0
 11
1537.1779029681
 21
-644.5290386574
 31
0.0
  0
LINE
  5
21B
330
1F
100
AcDbEntity
  8
0
  6
Continuous
 62
     7
370
    15
100
AcDbLine
 10
1537.1779029681
 20
-644.5290386574
 30
0.0
 11
1536.977903075
 21
-644.5290386574
 31
0.0
  0
LINE
  5
21C
330
1F
100
AcDbEntity
  8
0
  6
Continuous
 62
     7
370
    15
100
AcDbLine
 10
1536.977903075
 20
-644.5290386574
 30
0.0
 11
1536.977903075
 21
-642.0292198555
 31
0.0
  0
LINE
  5
21D
330
1F
100
AcDbEntity
  8
0
  6
Continuous
 62
     7
370
    15
100
AcDbLine
 10
1537.1779029681
 20
-642.2290146248
 30
0.0
 11
1536.977903075
 21
-642.0292198555
 31
0.0
  0
LINE
  5
21E
330
1F
100
AcDbEntity
  8
0
  6
Continuous
 62
     7
370
    15
100
AcDbLine
 10
1534.8779031499
 20
-661.8291675941
 30
0.0
 11
1534.8779031499
 21
-662.029200782
 31
0.0
  0
LINE
  5
21F
330
1F
100
AcDbEntity
  8
0
  6
Continuous
 62
     7
370
    15
100
AcDbLine
 10
1534.677903024
 20
-661.8291675941
 30
0.0
 11
1534.8779031499
 21
-662.029200782
 31
0.0
  0
LINE
  5
220
330
1F
100
AcDbEntity
  8
0
  6
Continuous
 62
     7
370
    15
100
AcDbLine
 10
1534.8779031499
 20
-661.8291675941
 30
0.0
 11
1534.677903024
 21
-661.8291675941
 31
0.0
  0
LINE
  5
221
330
1F
100
AcDbEntity
  8
0
  6
Continuous
 62
     7
370
    15
100
AcDbLine
 10
1534.8779031499
 20
-644.5290386574
 30
0.0
 11
1534.8779031499
 21
-661.8291675941
 31
0.0
  0
LINE
  5
222
330
1F
100
AcDbEntity
  8
0
  6
Continuous
 62
     7
370
    15
100
AcDbLine
 10
1536.977903075
 20
-644.5290386574
 30
0.0
 11
1534.8779031499
 21
-644.5290386574
 31
0.0
  0
LINE
  5
223
330
1F
100
AcDbEntity
  8
0
  6
Continuous
 62
     7
370
    15
100
AcDbLine
 10
1536.977903075
 20
-658.2290470497
 30
0.0
 11
1536.977903075
 21
-644.5290386574
 31
0.0
  0
LINE
  5
224
330
1F
100
AcDbEntity
  8
0
  6
Continuous
 62
     7
370
    15
100
AcDbLine
 10
1552.3779027587
 20
-644.5290386574
 30
0.0
 11
1552.3779027587
 21
-658.2290470497
 31
0.0
  0
LINE
  5
225
330
1F
100
AcDbEntity
  8
0
  6
Continuous
 62
     7
370
    15
100
AcDbLine
 10
1554.4779029167
 20
-661.8291675941
 30
0.0
 11
1554.4779029167
 21
-644.5290386574
 31
0.0
  0
LINE
  5
226
330
1F
100
AcDbEntity
  8
0
  6
Continuous
 62
     7
370
    15
100
AcDbLine
 10
1534.8779031499
 20
-661.8291675941
 30
0.0
 11
1554.4779029167
 21
-661.8291675941
 31
0.0
  0
LINE
  5
227
330
1F
100
AcDbEntity
  8
0
  6
Continuous
 62
     7
370
    15
100
AcDbLine
 10
1537.1779029681
 20
-644.5290386574
 30
0.0
 11
1537.1779029681
 21
-658.0290138618
 31
0.0
  0
LINE
  5
228
330
1F
100
AcDbEntity
  8
0
  6
Continuous
 62
     7
370
    15
100
AcDbLine
 10
1552.1779030985
 20
-658.0290138618
 30
0.0
 11
1552.1779030985
 21
-644.5290386574
 31
0.0
  0
LINE
  5
229
330
1F
100
AcDbEntity
  8
0
  6
Continuous
 62
     7
370
    15
100
AcDbLine
 10
1552.3779027587
 20
-644.5290386574
 30
0.0
 11
1552.1779030985
 21
-644.5290386574
 31
0.0
  0
LINE
  5
22A
330
1F
100
AcDbEntity
  8
0
  6
Continuous
 62
     7
370
    15
100
AcDbLine
 10
1554.4779029167
 20
-662.029200782
 30
0.0
 11
1534.8779031499
 21
-662.029200782
 31
0.0
  0
LINE
  5
22B
330
1F
100
AcDbEntity
  8
0
  6
Continuous
 62
     7
370
    15
100
AcDbLine
 10
1534.677903024
 20
-661.8291675941
 30
0.0
 11
1534.677903024
 21
-644.5290386574
 31
0.0
  0
LINE
  5
22C
330
1F
100
AcDbEntity
  8
0
  6
Continuous
 62
     7
370
    15
100
AcDbLine
 10
1552.1779030985
 20
-644.5290386574
 30
0.0
 11
1552.1779030985
 21
-642.2290146248
 31
0.0
  0
LINE
  5
22D
330
1F
100
AcDbEntity
  8
0
  6
Continuous
 62
     7
370
    15
100
AcDbLine
 10
1552.3779027587
 20
-642.0292198555
 30
0.0
 11
1552.1779030985
 21
-642.2290146248
 31
0.0
  0
LINE
  5
22E
330
1F
100
AcDbEntity
  8
0
  6
Continuous
 62
     7
370
    15
100
AcDbLine
 10
1554.6779035083
 20
-642.2290146248
 30
0.0
 11
1554.6779035083
 21
-644.5290386574
 31
0.0
  0
LINE
  5
22F
330
1F
100
AcDbEntity
  8
0
  6
Continuous
 62
     7
370
    15
100
AcDbLine
 10
1554.6779035083
 20
-644.5290386574
 30
0.0
 11
1554.4779029167
 21
-644.5290386574
 31
0.0
  0
LINE
  5
230
330
1F
100
AcDbEntity
  8
0
  6
Continuous
 62
     7
370
    15
100
AcDbLine
 10
1554.6779035083
 20
-642.2290146248
 30
0.0
 11
1554.4779029167
 21
-642.0292198555
 31
0.0
  0
LINE
  5
231
330
1F
100
AcDbEntity
  8
0
  6
Continuous
 62
     7
370
    15
100
AcDbLine
 10
1536.977903075
 20
-642.0292198555
 30
0.0
 11
1534.8779031499
 21
-642.0292198555
 31
0.0
  0
LINE
  5
232
330
1F
100
AcDbEntity
  8
0
  6
Continuous
 62
     7
370
    15
100
AcDbLine
 10
1554.6779035083
 20
-644.5290386574
 30
0.0
 11
1554.6779035083
 21
-661.8291675941
 31
0.0
  0
LINE
  5
233
330
1F
100
AcDbEntity
  8
0
  6
Continuous
 62
     7
370
    15
100
AcDbLine
 10
1538.6779029811
 20
1300.7708847626
 30
0.0
 11
1538.6779029811
 21
1271.1708903416
 31
0.0
  0
LINE
  5
234
330
1F
100
AcDbEntity
  8
0
  6
Continuous
 62
     7
370
    15
100
AcDbLine
 10
1534.677903024
 20
1273.0537265642
 30
0.0
 11
1534.677903024
 21
1298.8880410894
 31
0.0
  0
LINE
  5
235
330
1F
100
AcDbEntity
  8
0
  6
Continuous
 62
     7
370
    15
100
AcDbLine
 10
1538.6779029811
 20
1355.7708881899
 30
0.0
 11
1538.6779029811
 21
1326.1708900436
 31
0.0
  0
LINE
  5
236
330
1F
100
AcDbEntity
  8
0
  6
Continuous
 62
     7
370
    15
100
AcDbLine
 10
1534.677903024
 20
1328.0537262662
 30
0.0
 11
1534.677903024
 21
1353.8880445166
 31
0.0
  0
LINE
  5
237
330
1F
100
AcDbEntity
  8
0
  6
Continuous
 62
     7
370
    15
100
AcDbLine
 10
1571.303954204
 20
1431.4229808851
 30
0.0
 11
1571.303954204
 21
1423.4537299826
 31
0.0
  0
LINE
  5
238
330
1F
100
AcDbEntity
  8
0
  6
Continuous
 62
     7
370
    15
100
AcDbLine
 10
1571.303954204
 20
1449.288042645
 30
0.0
 11
1571.303954204
 21
1431.4229808851
 31
0.0
  0
LINE
  5
239
330
1F
100
AcDbEntity
  8
0
  6
Continuous
 62
     7
370
    15
100
AcDbLine
 10
1550.1779027707
 20
1340.9698441728
 30
0.0
 11
1550.1779027707
 21
1355.7708881899
 31
0.0
  0
LINE
  5
23A
330
1F
100
AcDbEntity
  8
0
  6
Continuous
 62
     7
370
    15
100
AcDbLine
 10
1550.1779027707
 20
1326.1708900436
 30
0.0
 11
1550.1779027707
 21
1340.9698441728
 31
0.0
  0
LINE
  5
23B
330
1F
100
AcDbEntity
  8
0
  6
Continuous
 62
     7
370
    15
100
AcDbLine
 10
1550.3779033622
 20
1340.9698292716
 30
0.0
 11
1550.3779033622
 21
1325.970886658
 31
0.0
  0
LINE
  5
23C
330
1F
100
AcDbEntity
  8
0
  6
Continuous
 62
     7
370
    15
100
AcDbLine
 10
1550.3779033622
 20
1355.9708878501
 30
0.0
 11
1550.3779033622
 21
1340.9698292716
 31
0.0
  0
LINE
  5
23D
330
1F
100
AcDbEntity
  8
0
  6
Continuous
 62
     7
370
    15
100
AcDbLine
 10
1559.4779028049
 20
1340.9698292716
 30
0.0
 11
1559.4779028049
 21
1355.9708878501
 31
0.0
  0
LINE
  5
23E
330
1F
100
AcDbEntity
  8
0
  6
Continuous
 62
     7
370
    15
100
AcDbLine
 10
1559.4779028049
 20
1325.970886658
 30
0.0
 11
1559.4779028049
 21
1340.9698292716
 31
0.0
  0
LINE
  5
23F
330
1F
100
AcDbEntity
  8
0
  6
Continuous
 62
     7
370
    15
100
AcDbLine
 10
1550.1779027707
 20
1285.3898391231
 30
0.0
 11
1550.1779027707
 21
1300.7708847626
 31
0.0
  0
LINE
  5
240
330
1F
100
AcDbEntity
  8
0
  6
Continuous
 62
     7
370
    15
100
AcDbLine
 10
1550.1779027707
 20
1271.1708903416
 30
0.0
 11
1550.1779027707
 21
1285.3898391231
 31
0.0
  0
LINE
  5
241
330
1F
100
AcDbEntity
  8
0
  6
Continuous
 62
     7
370
    15
100
AcDbLine
 10
1550.3779033622
 20
1285.3819862111
 30
0.0
 11
1550.3779033622
 21
1270.970886956
 31
0.0
  0
LINE
  5
242
330
1F
100
AcDbEntity
  8
0
  6
Continuous
 62
     7
370
    15
100
AcDbLine
 10
1550.3779033622
 20
1300.9708881481
 30
0.0
 11
1550.3779033622
 21
1285.3819862111
 31
0.0
  0
LINE
  5
243
330
1F
100
AcDbEntity
  8
0
  6
Continuous
 62
     7
370
    15
100
AcDbLine
 10
1559.4779028049
 20
1285.3819862111
 30
0.0
 11
1559.4779028049
 21
1300.9708881481
 31
0.0
  0
LINE
  5
244
330
1F
100
AcDbEntity
  8
0
  6
Continuous
 62
     7
370
    15
100
AcDbLine
 10
1559.4779028049
 20
1270.970886956
 30
0.0
 11
1559.4779028049
 21
1285.3819862111
 31
0.0
  0
LINE
  5
245
330
1F
100
AcDbEntity
  8
0
  6
Continuous
 62
     7
370
    15
100
AcDbLine
 10
1568.6779039404
 20
1327.6324555381
 30
0.0
 11
1568.6779039404
 21
1355.9708878501
 31
0.0
  0
LINE
  5
246
330
1F
100
AcDbEntity
  8
0
  6
Continuous
 62
     7
370
    15
100
AcDbLine
 10
1568.6779039404
 20
1325.970886658
 30
0.0
 11
1568.6779039404
 21
1327.6324555381
 31
0.0
  0
LINE
  5
247
330
1F
100
AcDbEntity
  8
0
  6
Continuous
 62
     7
370
    15
100
AcDbLine
 10
1570.6779024056
 20
1329.4109165772
 30
0.0
 11
1570.6779024056
 21
1327.9708832606
 31
0.0
  0
LINE
  5
248
330
1F
100
AcDbEntity
  8
0
  6
Continuous
 62
     7
370
    15
100
AcDbLine
 10
1570.6779024056
 20
1353.9708875223
 30
0.0
 11
1570.6779024056
 21
1329.4109165772
 31
0.0
  0
LINE
  5
249
330
1F
100
AcDbEntity
  8
0
  6
Continuous
 62
     7
370
    15
100
AcDbLine
 10
1565.6779034487
 20
1278.3660352333
 30
0.0
 11
1565.6779034487
 21
1285.9708875521
 31
0.0
  0
LINE
  5
24A
330
1F
100
AcDbEntity
  8
0
  6
Continuous
 62
     7
370
    15
100
AcDbLine
 10
1565.6779034487
 20
1270.970886956
 30
0.0
 11
1565.6779034487
 21
1278.3660352333
 31
0.0
  0
LINE
  5
24B
330
1F
100
AcDbEntity
  8
0
  6
Continuous
 62
     7
370
    15
100
AcDbLine
 10
1568.6779039404
 20
1278.3660352333
 30
0.0
 11
1568.6779039404
 21
1300.9708881481
 31
0.0
  0
LINE
  5
24C
330
1F
100
AcDbEntity
  8
0
  6
Continuous
 62
     7
370
    15
100
AcDbLine
 10
1568.6779039404
 20
1270.970886956
 30
0.0
 11
1568.6779039404
 21
1278.3660352333
 31
0.0
  0
LINE
  5
24D
330
1F
100
AcDbEntity
  8
0
  6
Continuous
 62
     7
370
    15
100
AcDbLine
 10
1570.6779024056
 20
1279.3800145491
 30
0.0
 11
1570.6779024056
 21
1272.9708835586
 31
0.0
  0
LINE
  5
24E
330
1F
100
AcDbEntity
  8
0
  6
Continuous
 62
     7
370
    15
100
AcDbLine
 10
1570.6779024056
 20
1298.970884095
 30
0.0
 11
1570.6779024056
 21
1279.3800145491
 31
0.0
  0
LINE
  5
24F
330
1F
100
AcDbEntity
  8
0
  6
Continuous
 62
     7
370
    15
100
AcDbLine
 10
1568.6779039404
 20
1474.9698326095
 30
0.0
 11
1568.6779039404
 21
1489.9708837374
 31
0.0
  0
LINE
  5
250
330
1F
100
AcDbEntity
  8
0
  6
Continuous
 62
     7
370
    15
100
AcDbLine
 10
1568.6779039404
 20
1459.9708899959
 30
0.0
 11
1568.6779039404
 21
1474.9698326095
 31
0.0
  0
LINE
  5
251
330
1F
100
AcDbEntity
  8
0
  6
Continuous
 62
     7
370
    15
100
AcDbLine
 10
1565.6779034487
 20
1474.9698326095
 30
0.0
 11
1565.6779034487
 21
1489.9708837374
 31
0.0
  0
LINE
  5
252
330
1F
100
AcDbEntity
  8
0
  6
Continuous
 62
     7
370
    15
100
AcDbLine
 10
1570.6779024056
 20
1474.9699741705
 30
0.0
 11
1570.6779024056
 21
1461.9708865984
 31
0.0
  0
LINE
  5
253
330
1F
100
AcDbEntity
  8
0
  6
Continuous
 62
     7
370
    15
100
AcDbLine
 10
1570.6779024056
 20
1487.9708871349
 30
0.0
 11
1570.6779024056
 21
1474.9699741705
 31
0.0
  0
LINE
  5
254
330
1F
100
AcDbEntity
  8
0
  6
Continuous
 62
     7
370
    15
100
AcDbLine
 10
1568.6779039404
 20
1414.9698302253
 30
0.0
 11
1568.6779039404
 21
1421.3708866491
 31
0.0
  0
LINE
  5
255
330
1F
100
AcDbEntity
  8
0
  6
Continuous
 62
     7
370
    15
100
AcDbLine
 10
1568.6779039404
 20
1399.970887146
 30
0.0
 11
1568.6779039404
 21
1414.9698302253
 31
0.0
  0
LINE
  5
256
330
1F
100
AcDbEntity
  8
0
  6
Continuous
 62
     7
370
    15
100
AcDbLine
 10
1570.6779024056
 20
1414.9699717863
 30
0.0
 11
1570.6779024056
 21
1401.9708870082
 31
0.0
  0
LINE
  5
257
330
1F
100
AcDbEntity
  8
0
  6
Continuous
 62
     7
370
    15
100
AcDbLine
 10
1570.6779024056
 20
1422.7448351784
 30
0.0
 11
1570.6779024056
 21
1414.9699717863
 31
0.0
  0
LINE
  5
258
330
1F
100
AcDbEntity
  8
0
  6
Continuous
 62
     7
370
    15
100
AcDbLine
 10
1530.6779032996
 20
1407.9708870604
 30
0.0
 11
1530.6779032996
 21
1420.3708864852
 31
0.0
  0
LINE
  5
259
330
1F
100
AcDbEntity
  8
0
  6
Continuous
 62
     7
370
    15
100
AcDbLine
 10
1531.6779034636
 20
1420.3708864852
 30
0.0
 11
1531.6779034636
 21
1406.9708868964
 31
0.0
  0
LINE
  5
25A
330
1F
100
AcDbEntity
  8
0
  6
Continuous
 62
     7
370
    15
100
AcDbLine
 10
1559.4779028049
 20
1406.9708868964
 30
0.0
 11
1559.4779028049
 21
1416.3708876922
 31
0.0
  0
LINE
  5
25B
330
1F
100
AcDbEntity
  8
0
  6
Continuous
 62
     7
370
    15
100
AcDbLine
 10
1531.6779034636
 20
1472.9139715536
 30
0.0
 11
1531.6779034636
 21
1460.1708859308
 31
0.0
  0
LINE
  5
25C
330
1F
100
AcDbEntity
  8
0
  6
Continuous
 62
     7
370
    15
100
AcDbLine
 10
1531.6779034636
 20
1489.7708878024
 30
0.0
 11
1531.6779034636
 21
1472.9139715536
 31
0.0
  0
LINE
  5
25D
330
1F
100
AcDbEntity
  8
0
  6
Continuous
 62
     7
370
    15
100
AcDbLine
 10
1528.6779029718
 20
1473.1756508454
 30
0.0
 11
1528.6779029718
 21
1487.8880441292
 31
0.0
  0
LINE
  5
25E
330
1F
100
AcDbEntity
  8
0
  6
Continuous
 62
     7
370
    15
100
AcDbLine
 10
1528.6779029718
 20
1462.0537296041
 30
0.0
 11
1528.6779029718
 21
1473.1756508454
 31
0.0
  0
LINE
  5
25F
330
1F
100
AcDbEntity
  8
0
  6
Continuous
 62
     7
370
    15
100
AcDbLine
 10
1551.6779030165
 20
1474.9688416823
 30
0.0
 11
1551.6779030165
 21
1503.9708897575
 31
0.0
  0
LINE
  5
260
330
1F
100
AcDbEntity
  8
0
  6
Continuous
 62
     7
370
    15
100
AcDbLine
 10
1551.6779030165
 20
1452.3708880051
 30
0.0
 11
1551.6779030165
 21
1474.9688416823
 31
0.0
  0
LINE
  5
261
330
1F
100
AcDbEntity
  8
0
  6
Continuous
 62
     7
370
    15
100
AcDbLine
 10
1553.1779032624
 20
1474.9688416823
 30
0.0
 11
1553.1779032624
 21
1503.9708897575
 31
0.0
  0
LINE
  5
262
330
1F
100
AcDbEntity
  8
0
  6
Continuous
 62
     7
370
    15
100
AcDbLine
 10
1553.1779032624
 20
1452.3708880051
 30
0.0
 11
1553.1779032624
 21
1474.9688416823
 31
0.0
  0
LINE
  5
263
330
1F
100
AcDbEntity
  8
0
  6
Continuous
 62
     7
370
    15
100
AcDbLine
 10
1533.6779028601
 20
1503.9708897575
 30
0.0
 11
1533.6779028601
 21
1452.3708880051
 31
0.0
  0
LINE
  5
264
330
1F
100
AcDbEntity
  8
0
  6
Continuous
 62
     7
370
    15
100
AcDbLine
 10
1532.1779026142
 20
1503.9708897575
 30
0.0
 11
1532.1779026142
 21
1452.3708880051
 31
0.0
  0
LINE
  5
265
330
1F
100
AcDbEntity
  8
0
  6
Continuous
 62
     7
370
    15
100
AcDbLine
 10
1550.7095771334
 20
1473.778805147
 30
0.0
 11
1550.7095771334
 21
1452.3708880051
 31
0.0
  0
LINE
  5
266
330
1F
100
AcDbEntity
  8
0
  6
Continuous
 62
     7
370
    15
100
AcDbLine
 10
1550.7095771334
 20
1503.9708897575
 30
0.0
 11
1550.7095771334
 21
1473.778805147
 31
0.0
  0
LINE
  5
267
330
1F
100
AcDbEntity
  8
0
  6
Continuous
 62
     7
370
    15
100
AcDbLine
 10
1534.6983315847
 20
1452.3708880051
 30
0.0
 11
1534.6983315847
 21
1503.9708897575
 31
0.0
  0
LINE
  5
268
330
1F
100
AcDbEntity
  8
0
  6
Continuous
 62
     7
370
    15
100
AcDbLine
 10
1533.6779028601
 20
1473.778805147
 30
0.0
 11
1533.6779028601
 21
1503.9708897575
 31
0.0
  0
LINE
  5
269
330
1F
100
AcDbEntity
  8
0
  6
Continuous
 62
     7
370
    15
100
AcDbLine
 10
1533.6779028601
 20
1452.3708880051
 30
0.0
 11
1533.6779028601
 21
1473.778805147
 31
0.0
  0
LINE
  5
26A
330
1F
100
AcDbEntity
  8
0
  6
Continuous
 62
     7
370
    15
100
AcDbLine
 10
1551.6779030165
 20
1473.778805147
 30
0.0
 11
1551.6779030165
 21
1503.9708897575
 31
0.0
  0
LINE
  5
26B
330
1F
100
AcDbEntity
  8
0
  6
Continuous
 62
     7
370
    15
100
AcDbLine
 10
1551.6779030165
 20
1452.3708880051
 30
0.0
 11
1551.6779030165
 21
1473.778805147
 31
0.0
  0
LINE
  5
26C
330
1F
100
AcDbEntity
  8
0
  6
Continuous
 62
     7
370
    15
100
AcDbLine
 10
1559.6779024652
 20
1285.9708875521
 30
0.0
 11
1565.6779034487
 21
1285.9708875521
 31
0.0
  0
LINE
  5
26D
330
1F
100
AcDbEntity
  8
0
  6
Continuous
 62
     7
370
    15
100
AcDbLine
 10
1565.6779034487
 20
1270.970886956
 30
0.0
 11
1565.6779034487
 21
1285.9708875521
 31
0.0
  0
ARC
  5
26E
330
1F
100
AcDbEntity
  8
0
  6
Continuous
 62
     7
370
    15
100
AcDbCircle
 10
1562.6779525051
 20
1256.015558975
 30
0.0
 40
15.04606830648428
100
AcDbArc
 50
83.7042889556
 51
96.2170864708
  0
LINE
  5
26F
330
1F
100
AcDbEntity
  8
0
  6
Continuous
 62
     7
370
    15
100
AcDbLine
 10
1559.6779024652
 20
1270.970886956
 30
0.0
 11
1559.6779024652
 21
1285.9708875521
 31
0.0
  0
LINE
  5
270
330
1F
100
AcDbEntity
  8
0
  6
Continuous
 62
     7
370
    15
100
AcDbLine
 10
1559.6779024652
 20
1474.9708905919
 30
0.0
 11
1565.6779034487
 21
1474.9708905919
 31
0.0
  0
LINE
  5
271
330
1F
100
AcDbEntity
  8
0
  6
Continuous
 62
     7
370
    15
100
AcDbLine
 10
1565.6779034487
 20
1285.9708875521
 30
0.0
 11
1565.6779034487
 21
1416.3708876922
 31
0.0
  0
LINE
  5
272
330
1F
100
AcDbEntity
  8
0
  6
Continuous
 62
     7
370
    15
100
AcDbLine
 10
1565.6779034487
 20
1456.3708886607
 30
0.0
 11
1565.6779034487
 21
1474.9708905919
 31
0.0
  0
LINE
  5
273
330
1F
100
AcDbEntity
  8
0
  6
Continuous
 62
     7
370
    15
100
AcDbLine
 10
1559.6779024652
 20
1285.9708875521
 30
0.0
 11
1559.6779024652
 21
1416.3708876922
 31
0.0
  0
LINE
  5
274
330
1F
100
AcDbEntity
  8
0
  6
Continuous
 62
     7
370
    15
100
AcDbLine
 10
1559.6779024652
 20
1456.3708886607
 30
0.0
 11
1559.6779024652
 21
1474.9708905919
 31
0.0
  0
LINE
  5
275
330
1F
100
AcDbEntity
  8
0
  6
Continuous
 62
     7
370
    15
100
AcDbLine
 10
1565.6779034487
 20
1474.9708905919
 30
0.0
 11
1565.6779034487
 21
1489.9708837374
 31
0.0
  0
LINE
  5
276
330
1F
100
AcDbEntity
  8
0
  6
Continuous
 62
     7
370
    15
100
AcDbLine
 10
1559.6779024652
 20
1474.9708905919
 30
0.0
 11
1559.6779024652
 21
1489.9708837374
 31
0.0
  0
LINE
  5
277
330
1F
100
AcDbEntity
  8
0
  6
Continuous
 62
     7
370
    15
100
AcDbLine
 10
1553.9779028347
 20
1474.9698326095
 30
0.0
 11
1553.9779028347
 21
1459.9708899959
 31
0.0
  0
LINE
  5
278
330
1F
100
AcDbEntity
  8
0
  6
Continuous
 62
     7
370
    15
100
AcDbLine
 10
1553.9779028347
 20
1489.9708837374
 30
0.0
 11
1553.9779028347
 21
1474.9698326095
 31
0.0
  0
LINE
  5
279
330
1F
100
AcDbEntity
  8
0
  6
Continuous
 62
     7
370
    15
100
AcDbLine
 10
1559.3779029748
 20
1474.9698326095
 30
0.0
 11
1559.3779029748
 21
1489.9708837374
 31
0.0
  0
LINE
  5
27A
330
1F
100
AcDbEntity
  8
0
  6
Continuous
 62
     7
370
    15
100
AcDbLine
 10
1559.3779029748
 20
1459.9708899959
 30
0.0
 11
1559.3779029748
 21
1474.9698326095
 31
0.0
  0
LINE
  5
27B
330
1F
100
AcDbEntity
  8
0
  6
Continuous
 62
     7
370
    15
100
AcDbLine
 10
1553.6779033444
 20
1474.9698549612
 30
0.0
 11
1553.6779033444
 21
1489.6708861097
 31
0.0
  0
LINE
  5
27C
330
1F
100
AcDbEntity
  8
0
  6
Continuous
 62
     7
370
    15
100
AcDbLine
 10
1553.6779033444
 20
1460.2708876236
 30
0.0
 11
1553.6779033444
 21
1474.9698549612
 31
0.0
  0
LINE
  5
27D
330
1F
100
AcDbEntity
  8
0
  6
Continuous
 62
     8
370
    15
100
AcDbLine
 10
1536.7607458918
 20
1300.7638439639
 30
0.0
 11
1536.7607458918
 21
1270.970886956
 31
0.0
  0
LINE
  5
27E
330
1F
100
AcDbEntity
  8
0
  6
Continuous
 62
     8
370
    15
100
AcDbLine
 10
1536.7607458918
 20
1300.9708881481
 30
0.0
 11
1536.7607458918
 21
1300.7638439639
 31
0.0
  0
LINE
  5
27F
330
1F
100
AcDbEntity
  8
0
  6
Continuous
 62
     8
370
    15
100
AcDbLine
 10
1536.6193245588
 20
1271.0294634207
 30
0.0
 11
1536.6193245588
 21
1300.9123116835
 31
0.0
  0
LINE
  5
280
330
1F
100
AcDbEntity
  8
0
  6
Continuous
 62
     8
370
    15
100
AcDbLine
 10
1538.4779030881
 20
1270.970886956
 30
0.0
 11
1538.4779030881
 21
1300.9708881481
 31
0.0
  0
LINE
  5
281
330
1F
100
AcDbEntity
  8
0
  6
Continuous
 62
     8
370
    15
100
AcDbLine
 10
1534.7364818169
 20
1299.0294680103
 30
0.0
 11
1534.7364818169
 21
1272.9123070939
 31
0.0
  0
LINE
  5
282
330
1F
100
AcDbEntity
  8
0
  6
Continuous
 62
     8
370
    15
100
AcDbLine
 10
1536.7607458918
 20
1326.9918844207
 30
0.0
 11
1536.7607458918
 21
1325.970886658
 31
0.0
  0
LINE
  5
283
330
1F
100
AcDbEntity
  8
0
  6
Continuous
 62
     8
370
    15
100
AcDbLine
 10
1536.7607458918
 20
1355.9708878501
 30
0.0
 11
1536.7607458918
 21
1326.9918844207
 31
0.0
  0
LINE
  5
284
330
1F
100
AcDbEntity
  8
0
  6
Continuous
 62
     8
370
    15
100
AcDbLine
 10
1536.6193245588
 20
1326.0294631227
 30
0.0
 11
1536.6193245588
 21
1355.9123076602
 31
0.0
  0
LINE
  5
285
330
1F
100
AcDbEntity
  8
0
  6
Continuous
 62
     8
370
    15
100
AcDbLine
 10
1538.4779030881
 20
1325.970886658
 30
0.0
 11
1538.4779030881
 21
1355.9708878501
 31
0.0
  0
LINE
  5
286
330
1F
100
AcDbEntity
  8
0
  6
Continuous
 62
     8
370
    15
100
AcDbLine
 10
1534.7364818169
 20
1354.0294639869
 30
0.0
 11
1534.7364818169
 21
1327.9123067959
 31
0.0
  0
LINE
  5
287
330
1F
100
AcDbEntity
  8
0
  6
Continuous
 62
     8
370
    15
100
AcDbLine
 10
1569.2211108706
 20
1421.3708866491
 30
0.0
 11
1569.2211108706
 21
1451.3708859785
 31
0.0
  0
LINE
  5
288
330
1F
100
AcDbEntity
  8
0
  6
Continuous
 62
     8
370
    15
100
AcDbLine
 10
1567.5039550713
 20
1430.625150363
 30
0.0
 11
1567.5039550713
 21
1421.3708866491
 31
0.0
  0
LINE
  5
289
330
1F
100
AcDbEntity
  8
0
  6
Continuous
 62
     8
370
    15
100
AcDbLine
 10
1567.5039550713
 20
1451.3708859785
 30
0.0
 11
1567.5039550713
 21
1430.625150363
 31
0.0
  0
LINE
  5
28A
330
1F
100
AcDbEntity
  8
0
  6
Continuous
 62
     8
370
    15
100
AcDbLine
 10
1569.3625340662
 20
1430.6475915118
 30
0.0
 11
1569.3625340662
 21
1421.4294649764
 31
0.0
  0
LINE
  5
28B
330
1F
100
AcDbEntity
  8
0
  6
Continuous
 62
     8
370
    15
100
AcDbLine
 10
1569.3625340662
 20
1451.3123095139
 30
0.0
 11
1569.3625340662
 21
1430.6475915118
 31
0.0
  0
LINE
  5
28C
330
1F
100
AcDbEntity
  8
0
  6
Continuous
 62
     8
370
    15
100
AcDbLine
 10
1571.2453758767
 20
1431.3688114389
 30
0.0
 11
1571.2453758767
 21
1449.4294658406
 31
0.0
  0
LINE
  5
28D
330
1F
100
AcDbEntity
  8
0
  6
Continuous
 62
     8
370
    15
100
AcDbLine
 10
1571.2453758767
 20
1423.3123086496
 30
0.0
 11
1571.2453758767
 21
1431.3688114389
 31
0.0
  0
LINE
  5
28E
330
1F
100
AcDbEntity
  8
0
  6
Continuous
 62
     8
370
    15
100
AcDbLine
 10
1530.760745374
 20
1489.9708837374
 30
0.0
 11
1530.760745374
 21
1459.9708899959
 31
0.0
  0
LINE
  5
28F
330
1F
100
AcDbEntity
  8
0
  6
Continuous
 62
     8
370
    15
100
AcDbLine
 10
1530.619324041
 20
1472.894316922
 30
0.0
 11
1530.619324041
 21
1489.9123072727
 31
0.0
  0
LINE
  5
290
330
1F
100
AcDbEntity
  8
0
  6
Continuous
 62
     8
370
    15
100
AcDbLine
 10
1530.619324041
 20
1460.0294664605
 30
0.0
 11
1530.619324041
 21
1472.894316922
 31
0.0
  0
LINE
  5
291
330
1F
100
AcDbEntity
  8
0
  6
Continuous
 62
     8
370
    15
100
AcDbLine
 10
1531.477902872
 20
1472.8861734374
 30
0.0
 11
1531.477902872
 21
1489.9708837374
 31
0.0
  0
LINE
  5
292
330
1F
100
AcDbEntity
  8
0
  6
Continuous
 62
     8
370
    15
100
AcDbLine
 10
1531.477902872
 20
1459.9708899959
 30
0.0
 11
1531.477902872
 21
1472.8861734374
 31
0.0
  0
LINE
  5
293
330
1F
100
AcDbEntity
  8
0
  6
Continuous
 62
     8
370
    15
100
AcDbLine
 10
1528.7364812991
 20
1473.1559962137
 30
0.0
 11
1528.7364812991
 21
1461.9123101338
 31
0.0
  0
LINE
  5
294
330
1F
100
AcDbEntity
  8
0
  6
Continuous
 62
     8
370
    15
100
AcDbLine
 10
1528.7364812991
 20
1488.0294635995
 30
0.0
 11
1528.7364812991
 21
1473.1559962137
 31
0.0
  0
LINE
  5
295
330
1F
100
AcDbEntity
  8
0
  6
Continuous
 62
     7
370
    15
100
AcDbLine
 10
-767.5256107694
 20
-743.830984099
 30
0.0
 11
-777.4995614534
 21
-743.830984099
 31
0.0
  0
LINE
  5
296
330
1F
100
AcDbEntity
  8
0
  6
Continuous
 62
     7
370
    15
100
AcDbLine
 10
-806.5516625291
 20
-743.830984099
 30
0.0
 11
-810.0256074911
 21
-743.830984099
 31
0.0
  0
LINE
  5
297
330
1F
100
AcDbEntity
  8
0
  6
Continuous
 62
     7
370
    15
100
AcDbLine
 10
-842.025609011
 20
-743.830984099
 30
0.0
 11
-890.0256096611
 21
-743.830984099
 31
0.0
  0
LINE
  5
298
330
1F
100
AcDbEntity
  8
0
  6
Continuous
 62
     7
370
    15
100
AcDbLine
 10
-257.5255830532
 20
-743.830984099
 30
0.0
 11
-752.543469215
 21
-743.830984099
 31
0.0
  0
LINE
  5
299
330
1F
100
AcDbEntity
  8
0
  6
Continuous
 62
     7
370
    15
100
AcDbLine
 10
252.47440741
 20
-743.830984099
 30
0.0
 11
-77.4995286709
 21
-743.830984099
 31
0.0
  0
LINE
  5
29A
330
1F
100
AcDbEntity
  8
0
  6
Continuous
 62
     7
370
    15
100
AcDbLine
 10
-106.5516669994
 20
-743.830984099
 30
0.0
 11
-242.5434787518
 21
-743.830984099
 31
0.0
  0
LINE
  5
29B
330
1F
100
AcDbEntity
  8
0
  6
Continuous
 62
     7
370
    15
100
AcDbLine
 10
762.4743978733
 20
-743.830984099
 30
0.0
 11
267.4743931049
 21
-743.830984099
 31
0.0
  0
LINE
  5
29C
330
1F
100
AcDbEntity
  8
0
  6
Continuous
 62
     7
370
    15
100
AcDbLine
 10
1272.4743883366
 20
-743.830984099
 30
0.0
 11
777.4565021747
 21
-743.830984099
 31
0.0
  0
LINE
  5
29D
330
1F
100
AcDbEntity
  8
0
  6
Continuous
 62
     7
370
    15
100
AcDbLine
 10
1409.9744360203
 20
-743.830984099
 30
0.0
 11
1361.9743387455
 21
-743.830984099
 31
0.0
  0
LINE
  5
29E
330
1F
100
AcDbEntity
  8
0
  6
Continuous
 62
     7
370
    15
100
AcDbLine
 10
1329.9742738956
 20
-743.830984099
 30
0.0
 11
1287.4566118473
 21
-743.830984099
 31
0.0
  0
LINE
  5
29F
330
1F
100
AcDbEntity
  8
0
  6
Continuous
 62
     7
370
    15
100
AcDbLine
 10
1287.5243227238
 20
-768.8309844715
 30
0.0
 11
1329.9742738956
 21
-768.8309844715
 31
0.0
  0
LINE
  5
2A0
330
1F
100
AcDbEntity
  8
0
  6
Continuous
 62
     7
370
    15
100
AcDbLine
 10
1361.9743387455
 20
-768.8309844715
 30
0.0
 11
1409.9744360203
 21
-768.8309844715
 31
0.0
  0
LINE
  5
2A1
330
1F
100
AcDbEntity
  8
0
  6
Continuous
 62
     7
370
    15
100
AcDbLine
 10
777.5243322605
 20
-768.8309844715
 30
0.0
 11
1272.4562685245
 21
-768.8309844715
 31
0.0
  0
LINE
  5
2A2
330
1F
100
AcDbEntity
  8
0
  6
Continuous
 62
     7
370
    15
100
AcDbLine
 10
267.5243417972
 20
-768.8309844715
 30
0.0
 11
762.4563972706
 21
-768.8309844715
 31
0.0
  0
LINE
  5
2A3
330
1F
100
AcDbEntity
  8
0
  6
Continuous
 62
     7
370
    15
100
AcDbLine
 10
-242.4755890614
 20
-768.8309844715
 30
0.0
 11
-107.0255835301
 21
-768.8309844715
 31
0.0
  0
LINE
  5
2A4
330
1F
100
AcDbEntity
  8
0
  6
Continuous
 62
     7
370
    15
100
AcDbLine
 10
-77.0256121403
 20
-768.8309844715
 30
0.0
 11
252.4564068073
 21
-768.8309844715
 31
0.0
  0
LINE
  5
2A5
330
1F
100
AcDbEntity
  8
0
  6
Continuous
 62
     7
370
    15
100
AcDbLine
 10
-752.4756093269
 20
-768.8309844715
 30
0.0
 11
-257.5436432606
 21
-768.8309844715
 31
0.0
  0
LINE
  5
2A6
330
1F
100
AcDbEntity
  8
0
  6
Continuous
 62
     7
370
    15
100
AcDbLine
 10
-890.0256096611
 20
-768.8309844715
 30
0.0
 11
-842.025609011
 21
-768.8309844715
 31
0.0
  0
LINE
  5
2A7
330
1F
100
AcDbEntity
  8
0
  6
Continuous
 62
     7
370
    15
100
AcDbLine
 10
-810.0256074911
 20
-768.8309844715
 30
0.0
 11
-807.025608862
 21
-768.8309844715
 31
0.0
  0
LINE
  5
2A8
330
1F
100
AcDbEntity
  8
0
  6
Continuous
 62
     7
370
    15
100
AcDbLine
 10
-777.0256076699
 20
-768.8309844715
 30
0.0
 11
-767.543648625
 21
-768.8309844715
 31
0.0
  0
LINE
  5
2A9
330
1F
100
AcDbEntity
  8
0
  6
Continuous
 62
     7
370
    15
100
AcDbLine
 10
-767.475609923
 20
-768.8309844715
 30
0.0
 11
-767.475609923
 21
-769.7322895882
 31
0.0
  0
LINE
  5
2AA
330
1F
100
AcDbEntity
  8
0
  6
Continuous
 62
     7
370
    15
100
AcDbLine
 10
-752.5756110197
 20
-769.7322895882
 30
0.0
 11
-752.5756110197
 21
-768.8309844715
 31
0.0
  0
LINE
  5
2AB
330
1F
100
AcDbEntity
  8
0
  6
Continuous
 62
     7
370
    15
100
AcDbLine
 10
-767.475609923
 20
-769.7322895882
 30
0.0
 11
-766.4756078964
 21
-770.7322897522
 31
0.0
  0
LINE
  5
2AC
330
1F
100
AcDbEntity
  8
0
  6
Continuous
 62
     7
370
    15
100
AcDbLine
 10
-753.5756130463
 20
-770.7322897522
 30
0.0
 11
-752.5756110197
 21
-769.7322895882
 31
0.0
  0
LINE
  5
2AD
330
1F
100
AcDbEntity
  8
0
  6
Continuous
 62
     7
370
    15
100
AcDbLine
 10
-257.4756343609
 20
-768.8309844715
 30
0.0
 11
-257.4756343609
 21
-769.7322895882
 31
0.0
  0
LINE
  5
2AE
330
1F
100
AcDbEntity
  8
0
  6
Continuous
 62
     7
370
    15
100
AcDbLine
 10
-242.5756056553
 20
-769.7322895882
 30
0.0
 11
-242.5756056553
 21
-768.8309844715
 31
0.0
  0
LINE
  5
2AF
330
1F
100
AcDbEntity
  8
0
  6
Continuous
 62
     7
370
    15
100
AcDbLine
 10
-257.4756343609
 20
-769.7322895882
 30
0.0
 11
-256.4755876309
 21
-770.7322897522
 31
0.0
  0
LINE
  5
2B0
330
1F
100
AcDbEntity
  8
0
  6
Continuous
 62
     7
370
    15
100
AcDbLine
 10
-243.5755927807
 20
-770.7322897522
 30
0.0
 11
-242.5756056553
 21
-769.7322895882
 31
0.0
  0
LINE
  5
2B1
330
1F
100
AcDbEntity
  8
0
  6
Continuous
 62
     7
370
    15
100
AcDbLine
 10
762.5243465656
 20
-768.8309844715
 30
0.0
 11
762.5243465656
 21
-769.7322895882
 31
0.0
  0
LINE
  5
2B2
330
1F
100
AcDbEntity
  8
0
  6
Continuous
 62
     7
370
    15
100
AcDbLine
 10
777.4244348759
 20
-769.7322895882
 30
0.0
 11
777.4244348759
 21
-768.8309844715
 31
0.0
  0
LINE
  5
2B3
330
1F
100
AcDbEntity
  8
0
  6
Continuous
 62
     7
370
    15
100
AcDbLine
 10
762.5243465656
 20
-769.7322895882
 30
0.0
 11
763.5243932957
 21
-770.7322897522
 31
0.0
  0
LINE
  5
2B4
330
1F
100
AcDbEntity
  8
0
  6
Continuous
 62
     7
370
    15
100
AcDbLine
 10
776.4243881458
 20
-770.7322897522
 30
0.0
 11
777.4244348759
 21
-769.7322895882
 31
0.0
  0
LINE
  5
2B5
330
1F
100
AcDbEntity
  8
0
  6
Continuous
 62
     7
370
    15
100
AcDbLine
 10
1272.5244562382
 20
-768.8309844715
 30
0.0
 11
1272.5244562382
 21
-769.7322895882
 31
0.0
  0
LINE
  5
2B6
330
1F
100
AcDbEntity
  8
0
  6
Continuous
 62
     7
370
    15
100
AcDbLine
 10
1287.4244253391
 20
-769.7322895882
 30
0.0
 11
1287.4244253391
 21
-768.8309844715
 31
0.0
  0
LINE
  5
2B7
330
1F
100
AcDbEntity
  8
0
  6
Continuous
 62
     7
370
    15
100
AcDbLine
 10
1272.5244562382
 20
-769.7322895882
 30
0.0
 11
1273.5243837589
 21
-770.7322897522
 31
0.0
  0
LINE
  5
2B8
330
1F
100
AcDbEntity
  8
0
  6
Continuous
 62
     7
370
    15
100
AcDbLine
 10
1286.4244978184
 20
-770.7322897522
 30
0.0
 11
1287.4244253391
 21
-769.7322895882
 31
0.0
  0
LINE
  5
2B9
330
1F
100
AcDbEntity
  8
0
  6
Continuous
 62
     7
370
    15
100
AcDbLine
 10
-846.0256096667
 20
-772.930984026
 30
0.0
 11
-846.0256096667
 21
-780.9309853373
 31
0.0
  0
LINE
  5
2BA
330
1F
100
AcDbEntity
  8
0
  6
Continuous
 62
     7
370
    15
100
AcDbLine
 10
1325.974325394
 20
-772.930984026
 30
0.0
 11
1325.974325394
 21
-780.9309853373
 31
0.0
  0
LINE
  5
2BB
330
1F
100
AcDbEntity
  8
0
  6
Continuous
 62
     7
370
    15
100
AcDbLine
 10
1365.9742872471
 20
-780.9309853373
 30
0.0
 11
1365.9742872471
 21
-772.930984026
 31
0.0
  0
LINE
  5
2BC
330
1F
100
AcDbEntity
  8
0
  6
Continuous
 62
     7
370
    15
100
AcDbLine
 10
-810.0256074911
 20
-742.1309841929
 30
0.0
 11
-811.8256081587
 21
-740.3309844566
 31
0.0
  0
LINE
  5
2BD
330
1F
100
AcDbEntity
  8
0
  6
Continuous
 62
     7
370
    15
100
AcDbLine
 10
-840.2256083435
 20
-740.3309844566
 30
0.0
 11
-842.025609011
 21
-742.1309841929
 31
0.0
  0
LINE
  5
2BE
330
1F
100
AcDbEntity
  8
0
  6
Continuous
 62
     7
370
    15
100
AcDbLine
 10
-842.025609011
 20
-768.8309844715
 30
0.0
 11
-842.025609011
 21
-772.930984026
 31
0.0
  0
LINE
  5
2BF
330
1F
100
AcDbEntity
  8
0
  6
Continuous
 62
     7
370
    15
100
AcDbLine
 10
-842.025609011
 20
-742.1309841929
 30
0.0
 11
-842.025609011
 21
-743.7309842689
 31
0.0
  0
LINE
  5
2C0
330
1F
100
AcDbEntity
  8
0
  6
Continuous
 62
     7
370
    15
100
AcDbLine
 10
-810.0256074911
 20
-743.7309842689
 30
0.0
 11
-810.0256074911
 21
-742.1309841929
 31
0.0
  0
LINE
  5
2C1
330
1F
100
AcDbEntity
  8
0
  6
Continuous
 62
     7
370
    15
100
AcDbLine
 10
-810.0256074911
 20
-772.930984026
 30
0.0
 11
-810.0256074911
 21
-768.8309844715
 31
0.0
  0
LINE
  5
2C2
330
1F
100
AcDbEntity
  8
0
  6
Continuous
 62
     7
370
    15
100
AcDbLine
 10
1361.9743387455
 20
-742.1309841929
 30
0.0
 11
1360.1742784733
 21
-740.3309844566
 31
0.0
  0
LINE
  5
2C3
330
1F
100
AcDbEntity
  8
0
  6
Continuous
 62
     7
370
    15
100
AcDbLine
 10
1331.7743341679
 20
-740.3309844566
 30
0.0
 11
1329.9742738956
 21
-742.1309841929
 31
0.0
  0
LINE
  5
2C4
330
1F
100
AcDbEntity
  8
0
  6
Continuous
 62
     7
370
    15
100
AcDbLine
 10
1329.9742738956
 20
-768.8309844715
 30
0.0
 11
1329.9742738956
 21
-772.930984026
 31
0.0
  0
LINE
  5
2C5
330
1F
100
AcDbEntity
  8
0
  6
Continuous
 62
     7
370
    15
100
AcDbLine
 10
1329.9742738956
 20
-742.1309841929
 30
0.0
 11
1329.9742738956
 21
-743.7309842689
 31
0.0
  0
LINE
  5
2C6
330
1F
100
AcDbEntity
  8
0
  6
Continuous
 62
     7
370
    15
100
AcDbLine
 10
1361.9743387455
 20
-743.7309842689
 30
0.0
 11
1361.9743387455
 21
-742.1309841929
 31
0.0
  0
LINE
  5
2C7
330
1F
100
AcDbEntity
  8
0
  6
Continuous
 62
     7
370
    15
100
AcDbLine
 10
1361.9743387455
 20
-772.930984026
 30
0.0
 11
1361.9743387455
 21
-768.8309844715
 31
0.0
  0
LINE
  5
2C8
330
1F
100
AcDbEntity
  8
0
  6
Continuous
 62
     7
370
    15
100
AcDbLine
 10
762.4743978733
 20
-739.8309843747
 30
0.0
 11
762.4743978733
 21
-743.830984099
 31
0.0
  0
LINE
  5
2C9
330
1F
100
AcDbEntity
  8
0
  6
Continuous
 62
     7
370
    15
100
AcDbLine
 10
777.4743835682
 20
-743.830984099
 30
0.0
 11
777.4743835682
 21
-739.8309843747
 31
0.0
  0
LINE
  5
2CA
330
1F
100
AcDbEntity
  8
0
  6
Continuous
 62
     7
370
    15
100
AcDbLine
 10
1272.4743883366
 20
-739.8309843747
 30
0.0
 11
1272.4743883366
 21
-743.830984099
 31
0.0
  0
LINE
  5
2CB
330
1F
100
AcDbEntity
  8
0
  6
Continuous
 62
     7
370
    15
100
AcDbLine
 10
1287.4744932407
 20
-743.830984099
 30
0.0
 11
1287.4744932407
 21
-739.8309843747
 31
0.0
  0
LINE
  5
2CC
330
1F
100
AcDbEntity
  8
0
  6
Continuous
 62
     7
370
    15
100
AcDbLine
 10
252.47440741
 20
-739.8309843747
 30
0.0
 11
252.47440741
 21
-743.830984099
 31
0.0
  0
LINE
  5
2CD
330
1F
100
AcDbEntity
  8
0
  6
Continuous
 62
     7
370
    15
100
AcDbLine
 10
267.4743931049
 20
-743.830984099
 30
0.0
 11
267.4743931049
 21
-739.8309843747
 31
0.0
  0
LINE
  5
2CE
330
1F
100
AcDbEntity
  8
0
  6
Continuous
 62
     7
370
    15
100
AcDbLine
 10
-767.5256107694
 20
-739.8309843747
 30
0.0
 11
-767.5256107694
 21
-743.830984099
 31
0.0
  0
LINE
  5
2CF
330
1F
100
AcDbEntity
  8
0
  6
Continuous
 62
     7
370
    15
100
AcDbLine
 10
-752.5256027227
 20
-743.830984099
 30
0.0
 11
-752.5256027227
 21
-739.8309843747
 31
0.0
  0
LINE
  5
2D0
330
1F
100
AcDbEntity
  8
0
  6
Continuous
 62
     7
370
    15
100
AcDbLine
 10
-257.5255830532
 20
-739.8309843747
 30
0.0
 11
-257.5255830532
 21
-743.830984099
 31
0.0
  0
LINE
  5
2D1
330
1F
100
AcDbEntity
  8
0
  6
Continuous
 62
     7
370
    15
100
AcDbLine
 10
-242.5255973583
 20
-743.830984099
 30
0.0
 11
-242.5255973583
 21
-739.8309843747
 31
0.0
  0
LINE
  5
2D2
330
1F
100
AcDbEntity
  8
0
  6
Continuous
 62
     7
370
    15
100
AcDbLine
 10
252.5243561024
 20
-768.8309844715
 30
0.0
 11
252.5243561024
 21
-769.7322895882
 31
0.0
  0
LINE
  5
2D3
330
1F
100
AcDbEntity
  8
0
  6
Continuous
 62
     7
370
    15
100
AcDbLine
 10
267.4244444126
 20
-769.7322895882
 30
0.0
 11
267.4244444126
 21
-768.8309844715
 31
0.0
  0
LINE
  5
2D4
330
1F
100
AcDbEntity
  8
0
  6
Continuous
 62
     7
370
    15
100
AcDbLine
 10
252.5243561024
 20
-769.7322895882
 30
0.0
 11
253.5244028324
 21
-770.7322897522
 31
0.0
  0
LINE
  5
2D5
330
1F
100
AcDbEntity
  8
0
  6
Continuous
 62
     7
370
    15
100
AcDbLine
 10
266.4243976826
 20
-770.7322897522
 30
0.0
 11
267.4244444126
 21
-769.7322895882
 31
0.0
  0
LINE
  5
2D6
330
1F
100
AcDbEntity
  8
0
  6
Continuous
 62
     7
370
    15
100
AcDbLine
 10
-785.0256089812
 20
-736.8309838829
 30
0.0
 11
-785.0256089812
 21
-738.8309842108
 31
0.0
  0
LINE
  5
2D7
330
1F
100
AcDbEntity
  8
0
  6
Continuous
 62
     7
370
    15
100
AcDbLine
 10
-735.0256045109
 20
-738.8309842108
 30
0.0
 11
-735.0256045109
 21
-736.8309838829
 31
0.0
  0
LINE
  5
2D8
330
1F
100
AcDbEntity
  8
0
  6
Continuous
 62
     7
370
    15
100
AcDbLine
 10
-785.0256089812
 20
-738.8309842108
 30
0.0
 11
-784.0256069547
 21
-739.8309843747
 31
0.0
  0
LINE
  5
2D9
330
1F
100
AcDbEntity
  8
0
  6
Continuous
 62
     7
370
    15
100
AcDbLine
 10
-736.0256065374
 20
-739.8309843747
 30
0.0
 11
-735.0256045109
 21
-738.8309842108
 31
0.0
  0
LINE
  5
2DA
330
1F
100
AcDbEntity
  8
0
  6
Continuous
 62
     7
370
    15
100
AcDbLine
 10
234.9743644947
 20
-738.8309842108
 30
0.0
 11
235.9744112247
 21
-739.8309843747
 31
0.0
  0
LINE
  5
2DB
330
1F
100
AcDbEntity
  8
0
  6
Continuous
 62
     7
370
    15
100
AcDbLine
 10
283.9743892902
 20
-739.8309843747
 30
0.0
 11
284.9744360203
 21
-738.8309842108
 31
0.0
  0
LINE
  5
2DC
330
1F
100
AcDbEntity
  8
0
  6
Continuous
 62
     7
370
    15
100
AcDbLine
 10
234.9743644947
 20
-736.8309838829
 30
0.0
 11
234.9743644947
 21
-738.8309842108
 31
0.0
  0
LINE
  5
2DD
330
1F
100
AcDbEntity
  8
0
  6
Continuous
 62
     7
370
    15
100
AcDbLine
 10
284.9744360203
 20
-738.8309842108
 30
0.0
 11
284.9744360203
 21
-736.8309838829
 31
0.0
  0
LINE
  5
2DE
330
1F
100
AcDbEntity
  8
0
  6
Continuous
 62
     7
370
    15
100
AcDbLine
 10
744.974354958
 20
-738.8309842108
 30
0.0
 11
745.974401688
 21
-739.8309843747
 31
0.0
  0
LINE
  5
2DF
330
1F
100
AcDbEntity
  8
0
  6
Continuous
 62
     7
370
    15
100
AcDbLine
 10
793.9743797535
 20
-739.8309843747
 30
0.0
 11
794.9744264835
 21
-738.8309842108
 31
0.0
  0
LINE
  5
2E0
330
1F
100
AcDbEntity
  8
0
  6
Continuous
 62
     7
370
    15
100
AcDbLine
 10
744.974354958
 20
-736.8309838829
 30
0.0
 11
744.974354958
 21
-738.8309842108
 31
0.0
  0
LINE
  5
2E1
330
1F
100
AcDbEntity
  8
0
  6
Continuous
 62
     7
370
    15
100
AcDbLine
 10
794.9744264835
 20
-738.8309842108
 30
0.0
 11
794.9744264835
 21
-736.8309838829
 31
0.0
  0
LINE
  5
2E2
330
1F
100
AcDbEntity
  8
0
  6
Continuous
 62
     7
370
    15
100
AcDbLine
 10
1254.9744646305
 20
-738.8309842108
 30
0.0
 11
1255.9743921513
 21
-739.8309843747
 31
0.0
  0
LINE
  5
2E3
330
1F
100
AcDbEntity
  8
0
  6
Continuous
 62
     7
370
    15
100
AcDbLine
 10
1303.974489426
 20
-739.8309843747
 30
0.0
 11
1304.9744169468
 21
-738.8309842108
 31
0.0
  0
LINE
  5
2E4
330
1F
100
AcDbEntity
  8
0
  6
Continuous
 62
     7
370
    15
100
AcDbLine
 10
1254.9744646305
 20
-736.8309838829
 30
0.0
 11
1254.9744646305
 21
-738.8309842108
 31
0.0
  0
LINE
  5
2E5
330
1F
100
AcDbEntity
  8
0
  6
Continuous
 62
     7
370
    15
100
AcDbLine
 10
1304.9744169468
 20
-738.8309842108
 30
0.0
 11
1304.9744169468
 21
-736.8309838829
 31
0.0
  0
LINE
  5
2E6
330
1F
100
AcDbEntity
  8
0
  6
Continuous
 62
     7
370
    15
100
AcDbLine
 10
-275.0256259686
 20
-736.8309838829
 30
0.0
 11
-275.0256259686
 21
-738.8309842108
 31
0.0
  0
LINE
  5
2E7
330
1F
100
AcDbEntity
  8
0
  6
Continuous
 62
     7
370
    15
100
AcDbLine
 10
-225.0256140476
 20
-738.8309842108
 30
0.0
 11
-225.0256140476
 21
-736.8309838829
 31
0.0
  0
LINE
  5
2E8
330
1F
100
AcDbEntity
  8
0
  6
Continuous
 62
     7
370
    15
100
AcDbLine
 10
-275.0256259686
 20
-738.8309842108
 30
0.0
 11
-274.0256388432
 21
-739.8309843747
 31
0.0
  0
LINE
  5
2E9
330
1F
100
AcDbEntity
  8
0
  6
Continuous
 62
     7
370
    15
100
AcDbLine
 10
-226.025601173
 20
-739.8309843747
 30
0.0
 11
-225.0256140476
 21
-738.8309842108
 31
0.0
  0
LINE
  5
2EA
330
1F
100
AcDbEntity
  8
0
  6
Continuous
 62
     7
370
    15
100
AcDbLine
 10
1410.1744692081
 20
-743.830984099
 30
0.0
 11
1409.9744360203
 21
-744.0309846906
 31
0.0
  0
LINE
  5
2EB
330
1F
100
AcDbEntity
  8
0
  6
Continuous
 62
     7
370
    15
100
AcDbLine
 10
1409.9744360203
 20
-768.6309848113
 30
0.0
 11
1410.1744692081
 21
-768.8309844715
 31
0.0
  0
LINE
  5
2EC
330
1F
100
AcDbEntity
  8
0
  6
Continuous
 62
     7
370
    15
100
AcDbLine
 10
1411.7744962925
 20
-768.8309844715
 30
0.0
 11
1411.9742910618
 21
-768.6309848113
 31
0.0
  0
LINE
  5
2ED
330
1F
100
AcDbEntity
  8
0
  6
Continuous
 62
     7
370
    15
100
AcDbLine
 10
1411.9742910618
 20
-744.0309846906
 30
0.0
 11
1411.7744962925
 21
-743.830984099
 31
0.0
  0
LINE
  5
2EE
330
1F
100
AcDbEntity
  8
0
  6
Continuous
 62
     7
370
    15
100
AcDbLine
 10
1411.7744962925
 20
-743.830984099
 30
0.0
 11
1410.1744692081
 21
-743.830984099
 31
0.0
  0
LINE
  5
2EF
330
1F
100
AcDbEntity
  8
0
  6
Continuous
 62
     7
370
    15
100
AcDbLine
 10
1410.1744692081
 20
-768.8309844715
 30
0.0
 11
1411.7744962925
 21
-768.8309844715
 31
0.0
  0
LINE
  5
2F0
330
1F
100
AcDbEntity
  8
0
  6
Continuous
 62
     7
370
    15
100
AcDbLine
 10
-891.8256097611
 20
-768.8309844715
 30
0.0
 11
-890.225609787
 21
-768.8309844715
 31
0.0
  0
LINE
  5
2F1
330
1F
100
AcDbEntity
  8
0
  6
Continuous
 62
     7
370
    15
100
AcDbLine
 10
-890.225609787
 20
-743.830984099
 30
0.0
 11
-891.8256097611
 21
-743.830984099
 31
0.0
  0
LINE
  5
2F2
330
1F
100
AcDbEntity
  8
0
  6
Continuous
 62
     7
370
    15
100
AcDbLine
 10
-891.8256097611
 20
-743.830984099
 30
0.0
 11
-892.0256097561
 21
-744.0309846906
 31
0.0
  0
LINE
  5
2F3
330
1F
100
AcDbEntity
  8
0
  6
Continuous
 62
     7
370
    15
100
AcDbLine
 10
-892.0256097561
 20
-768.6309848113
 30
0.0
 11
-891.8256097611
 21
-768.8309844715
 31
0.0
  0
LINE
  5
2F4
330
1F
100
AcDbEntity
  8
0
  6
Continuous
 62
     7
370
    15
100
AcDbLine
 10
-890.225609787
 20
-768.8309844715
 30
0.0
 11
-890.0256096611
 21
-768.6309848113
 31
0.0
  0
LINE
  5
2F5
330
1F
100
AcDbEntity
  8
0
  6
Continuous
 62
     7
370
    15
100
AcDbLine
 10
-890.0256096611
 20
-744.0309846906
 30
0.0
 11
-890.225609787
 21
-743.830984099
 31
0.0
  0
LINE
  5
2F6
330
1F
100
AcDbEntity
  8
0
  6
Continuous
 62
     7
370
    15
100
AcDbLine
 10
-811.0256095177
 20
-782.8481407968
 30
0.0
 11
-811.0256095177
 21
-781.1309849975
 31
0.0
  0
LINE
  5
2F7
330
1F
100
AcDbEntity
  8
0
  6
Continuous
 62
     7
370
    15
100
AcDbLine
 10
-841.0256107098
 20
-781.1309849975
 30
0.0
 11
-841.0256107098
 21
-782.8481407968
 31
0.0
  0
ARC
  5
2F8
330
1F
100
AcDbEntity
  8
0
  6
Continuous
 62
     7
370
    15
100
AcDbCircle
 10
-840.8256097561
 20
-781.1309844256
 30
0.0
 40
0.1999999999999318
100
AcDbArc
 50
90.0
 51
180.0
  0
ARC
  5
2F9
330
1F
100
AcDbEntity
  8
0
  6
Continuous
 62
     7
370
    15
100
AcDbCircle
 10
-811.2256097561
 20
-781.1309844256
 30
0.0
 40
0.1999999999999318
100
AcDbArc
 50
0.0
 51
90.0
  0
ARC
  5
2FA
330
1F
100
AcDbEntity
  8
0
  6
Continuous
 62
     7
370
    15
100
AcDbCircle
 10
-811.2256097561
 20
-782.8481417132
 30
0.0
 40
0.2000000000000498
100
AcDbArc
 50
315.0
 51
0.0
  0
ARC
  5
2FB
330
1F
100
AcDbEntity
  8
0
  6
Continuous
 62
     7
370
    15
100
AcDbCircle
 10
-840.8256097561
 20
-782.8481417132
 30
0.0
 40
0.1999999999999318
100
AcDbArc
 50
180.0
 51
225.0
  0
LINE
  5
2FC
330
1F
100
AcDbEntity
  8
0
  6
Continuous
 62
     7
370
    15
100
AcDbLine
 10
-840.9670305198
 20
-782.9895639924
 30
0.0
 11
-839.0841868466
 21
-784.872405803
 31
0.0
  0
LINE
  5
2FD
330
1F
100
AcDbEntity
  8
0
  6
Continuous
 62
     7
370
    15
100
AcDbLine
 10
-812.9670296556
 20
-784.872405803
 30
0.0
 11
-811.0841859823
 21
-782.9895639924
 31
0.0
  0
ARC
  5
2FE
330
1F
100
AcDbEntity
  8
0
  6
Continuous
 62
     7
370
    15
100
AcDbCircle
 10
-838.9427670436
 20
-784.7309844256
 30
0.0
 40
0.2000000000001592
100
AcDbArc
 50
225.0
 51
270.0
  0
ARC
  5
2FF
330
1F
100
AcDbEntity
  8
0
  6
Continuous
 62
     7
370
    15
100
AcDbCircle
 10
-813.1084524686
 20
-784.7309844256
 30
0.0
 40
0.2000000000001592
100
AcDbArc
 50
270.0
 51
315.0
  0
ARC
  5
300
330
1F
100
AcDbEntity
  8
0
  6
Continuous
 62
     7
370
    15
100
AcDbCircle
 10
1331.1743902439
 20
-781.1309844256
 30
0.0
 40
0.1999999999999318
100
AcDbArc
 50
90.0
 51
180.0
  0
ARC
  5
301
330
1F
100
AcDbEntity
  8
0
  6
Continuous
 62
     7
370
    15
100
AcDbCircle
 10
1360.7743902439
 20
-781.1309844256
 30
0.0
 40
0.2000000000000455
100
AcDbArc
 50
0.0
 51
90.0
  0
LINE
  5
302
330
1F
100
AcDbEntity
  8
0
  6
Continuous
 62
     7
370
    15
100
AcDbLine
 10
1360.9744112247
 20
-782.8481407968
 30
0.0
 11
1360.9744112247
 21
-781.1309849975
 31
0.0
  0
LINE
  5
303
330
1F
100
AcDbEntity
  8
0
  6
Continuous
 62
     7
370
    15
100
AcDbLine
 10
1330.974439835
 20
-781.1309849975
 30
0.0
 11
1330.974439835
 21
-782.8481407968
 31
0.0
  0
ARC
  5
304
330
1F
100
AcDbEntity
  8
0
  6
Continuous
 62
     7
370
    15
100
AcDbCircle
 10
1360.7743902439
 20
-782.8481417132
 30
0.0
 40
0.2000000000000498
100
AcDbArc
 50
315.0
 51
0.0
  0
ARC
  5
305
330
1F
100
AcDbEntity
  8
0
  6
Continuous
 62
     7
370
    15
100
AcDbCircle
 10
1331.1743902439
 20
-782.8481417132
 30
0.0
 40
0.1999999999998891
100
AcDbArc
 50
180.0
 51
225.0000000001
  0
LINE
  5
306
330
1F
100
AcDbEntity
  8
0
  6
Continuous
 62
     7
370
    15
100
AcDbLine
 10
1331.0328523868
 20
-782.9895639924
 30
0.0
 11
1332.9158823246
 21
-784.872405803
 31
0.0
  0
LINE
  5
307
330
1F
100
AcDbEntity
  8
0
  6
Continuous
 62
     7
370
    15
100
AcDbLine
 10
1359.0329687351
 20
-784.872405803
 30
0.0
 11
1360.9157602543
 21
-782.9895639924
 31
0.0
  0
ARC
  5
308
330
1F
100
AcDbEntity
  8
0
  6
Continuous
 62
     7
370
    15
100
AcDbCircle
 10
1333.0572329564
 20
-784.7309844256
 30
0.0
 40
0.2000000000000455
100
AcDbArc
 50
225.0
 51
270.0
  0
ARC
  5
309
330
1F
100
AcDbEntity
  8
0
  6
Continuous
 62
     7
370
    15
100
AcDbCircle
 10
1358.8915475314
 20
-784.7309844256
 30
0.0
 40
0.2000000000000455
100
AcDbArc
 50
270.0
 51
315.0
  0
LINE
  5
30A
330
1F
100
AcDbEntity
  8
0
  6
Continuous
 62
     7
370
    15
100
AcDbLine
 10
-77.0256121403
 20
-773.1049327312
 30
0.0
 11
-77.0256121403
 21
-773.0049329011
 31
0.0
  0
LINE
  5
30B
330
1F
100
AcDbEntity
  8
0
  6
Continuous
 62
     7
370
    15
100
AcDbLine
 10
-107.0255835301
 20
-773.0049329011
 30
0.0
 11
-107.0255835301
 21
-773.1049327312
 31
0.0
  0
LINE
  5
30C
330
1F
100
AcDbEntity
  8
0
  6
Continuous
 62
     7
370
    15
100
AcDbLine
 10
-107.0255835301
 20
-773.1049327312
 30
0.0
 11
-106.8256099468
 21
-773.3049323914
 31
0.0
  0
LINE
  5
30D
330
1F
100
AcDbEntity
  8
0
  6
Continuous
 62
     7
370
    15
100
AcDbLine
 10
-77.2255857235
 20
-773.3049323914
 30
0.0
 11
-77.0256121403
 21
-773.1049327312
 31
0.0
  0
LINE
  5
30E
330
1F
100
AcDbEntity
  8
0
  6
Continuous
 62
     7
370
    15
100
AcDbLine
 10
-777.0256076699
 20
-773.1049327312
 30
0.0
 11
-777.0256076699
 21
-773.0049329011
 31
0.0
  0
LINE
  5
30F
330
1F
100
AcDbEntity
  8
0
  6
Continuous
 62
     7
370
    15
100
AcDbLine
 10
-777.2256110555
 20
-773.3049323914
 30
0.0
 11
-777.0256076699
 21
-773.1049327312
 31
0.0
  0
LINE
  5
310
330
1F
100
AcDbEntity
  8
0
  6
Continuous
 62
     7
370
    15
100
AcDbLine
 10
-777.0256076699
 20
-782.3049338666
 30
0.0
 11
-777.0256076699
 21
-779.3049333749
 31
0.0
  0
LINE
  5
311
330
1F
100
AcDbEntity
  8
0
  6
Continuous
 62
     7
370
    15
100
AcDbLine
 10
-807.025608862
 20
-779.3049333749
 30
0.0
 11
-807.025608862
 21
-782.3049338666
 31
0.0
  0
LINE
  5
312
330
1F
100
AcDbEntity
  8
0
  6
Continuous
 62
     7
370
    15
100
AcDbLine
 10
-807.025608862
 20
-782.3049338666
 30
0.0
 11
-805.0256122595
 21
-784.3049323318
 31
0.0
  0
LINE
  5
313
330
1F
100
AcDbEntity
  8
0
  6
Continuous
 62
     7
370
    15
100
AcDbLine
 10
-779.0256117231
 20
-784.3049323318
 30
0.0
 11
-777.0256076699
 21
-782.3049338666
 31
0.0
  0
LINE
  5
314
330
1F
100
AcDbEntity
  8
0
  6
Continuous
 62
     7
370
    15
100
AcDbLine
 10
-77.0256121403
 20
-782.3049338666
 30
0.0
 11
-77.0256121403
 21
-779.3049333749
 31
0.0
  0
LINE
  5
315
330
1F
100
AcDbEntity
  8
0
  6
Continuous
 62
     7
370
    15
100
AcDbLine
 10
-107.0255835301
 20
-779.3049333749
 30
0.0
 11
-107.0255835301
 21
-782.3049338666
 31
0.0
  0
LINE
  5
316
330
1F
100
AcDbEntity
  8
0
  6
Continuous
 62
     7
370
    15
100
AcDbLine
 10
-107.0255835301
 20
-782.3049338666
 30
0.0
 11
-105.0256092793
 21
-784.3049323318
 31
0.0
  0
LINE
  5
317
330
1F
100
AcDbEntity
  8
0
  6
Continuous
 62
     7
370
    15
100
AcDbLine
 10
-79.0255863911
 20
-784.3049323318
 30
0.0
 11
-77.0256121403
 21
-782.3049338666
 31
0.0
  0
ARC
  5
318
330
1F
100
AcDbEntity
  8
0
  6
Continuous
 62
     7
370
    15
100
AcDbCircle
 10
-106.8256097561
 20
-744.3877757149
 30
0.0
 40
0.1999999999999744
100
AcDbArc
 50
135.0
 51
180.0
  0
ARC
  5
319
330
1F
100
AcDbEntity
  8
0
  6
Continuous
 62
     7
370
    15
100
AcDbCircle
 10
-77.2256097561
 20
-744.3877757149
 30
0.0
 40
0.1999999999999795
100
AcDbArc
 50
0.0
 51
45.0
  0
ARC
  5
31A
330
1F
100
AcDbEntity
  8
0
  6
Continuous
 62
     7
370
    15
100
AcDbCircle
 10
-77.2256097561
 20
-745.1049330024
 30
0.0
 40
0.1999999999999744
100
AcDbArc
 50
270.0
 51
0.0
  0
ARC
  5
31B
330
1F
100
AcDbEntity
  8
0
  6
Continuous
 62
     7
370
    15
100
AcDbCircle
 10
-106.8256097561
 20
-745.1049330024
 30
0.0
 40
0.1999999999999744
100
AcDbArc
 50
180.0
 51
270.0
  0
LINE
  5
31C
330
1F
100
AcDbEntity
  8
0
  6
Continuous
 62
     7
370
    15
100
AcDbLine
 10
-107.0255835301
 20
-744.3877753002
 30
0.0
 11
-107.0255835301
 21
-745.1049327982
 31
0.0
  0
LINE
  5
31D
330
1F
100
AcDbEntity
  8
0
  6
Continuous
 62
     7
370
    15
100
AcDbLine
 10
-77.0256121403
 20
-745.1049327982
 30
0.0
 11
-77.0256121403
 21
-744.3877753002
 31
0.0
  0
LINE
  5
31E
330
1F
100
AcDbEntity
  8
0
  6
Continuous
 62
     7
370
    15
100
AcDbLine
 10
-77.0842035061
 20
-744.2463539673
 30
0.0
 11
-78.9670546299
 21
-742.3635112254
 31
0.0
  0
LINE
  5
31F
330
1F
100
AcDbEntity
  8
0
  6
Continuous
 62
     7
370
    15
100
AcDbLine
 10
-105.0842006451
 20
-742.3635112254
 30
0.0
 11
-106.9670517689
 21
-744.2463539673
 31
0.0
  0
ARC
  5
320
330
1F
100
AcDbEntity
  8
0
  6
Continuous
 62
     7
370
    15
100
AcDbCircle
 10
-79.1084524686
 20
-742.5049330024
 30
0.0
 40
0.2000000000001592
100
AcDbArc
 50
45.0
 51
90.0
  0
ARC
  5
321
330
1F
100
AcDbEntity
  8
0
  6
Continuous
 62
     7
370
    15
100
AcDbCircle
 10
-104.9427670436
 20
-742.5049330024
 30
0.0
 40
0.2000000000001592
100
AcDbArc
 50
90.0
 51
135.0
  0
LINE
  5
322
330
1F
100
AcDbEntity
  8
0
  6
Continuous
 62
     7
370
    15
100
AcDbLine
 10
-82.2755892521
 20
-745.8049325404
 30
0.0
 11
-82.2755892521
 21
-745.3049333898
 31
0.0
  0
LINE
  5
323
330
1F
100
AcDbEntity
  8
0
  6
Continuous
 62
     7
370
    15
100
AcDbLine
 10
-101.7756064182
 20
-745.3049333898
 30
0.0
 11
-101.7756064182
 21
-745.8049325404
 31
0.0
  0
ARC
  5
324
330
1F
100
AcDbEntity
  8
0
  6
Continuous
 62
     7
370
    15
100
AcDbCircle
 10
-806.8256097561
 20
-744.3877757149
 30
0.0
 40
0.2000000000000455
100
AcDbArc
 50
135.0
 51
180.0
  0
ARC
  5
325
330
1F
100
AcDbEntity
  8
0
  6
Continuous
 62
     7
370
    15
100
AcDbCircle
 10
-777.2256097561
 20
-744.3877757149
 30
0.0
 40
0.2000000000001302
100
AcDbArc
 50
0.0
 51
45.0
  0
LINE
  5
326
330
1F
100
AcDbEntity
  8
0
  6
Continuous
 62
     7
370
    15
100
AcDbLine
 10
-807.025608862
 20
-744.3877753002
 30
0.0
 11
-807.025608862
 21
-745.1049327982
 31
0.0
  0
LINE
  5
327
330
1F
100
AcDbEntity
  8
0
  6
Continuous
 62
     7
370
    15
100
AcDbLine
 10
-777.0256076699
 20
-745.1049327982
 30
0.0
 11
-777.0256076699
 21
-744.3877753002
 31
0.0
  0
ARC
  5
328
330
1F
100
AcDbEntity
  8
0
  6
Continuous
 62
     7
370
    15
100
AcDbCircle
 10
-777.2256097561
 20
-745.1049330024
 30
0.0
 40
0.2000000000000455
100
AcDbArc
 50
270.0
 51
0.0
  0
ARC
  5
329
330
1F
100
AcDbEntity
  8
0
  6
Continuous
 62
     7
370
    15
100
AcDbCircle
 10
-806.8256097561
 20
-745.1049330024
 30
0.0
 40
0.2000000000000455
100
AcDbArc
 50
180.0
 51
270.0
  0
LINE
  5
32A
330
1F
100
AcDbEntity
  8
0
  6
Continuous
 62
     7
370
    15
100
AcDbLine
 10
-777.0841915852
 20
-744.2463539673
 30
0.0
 11
-778.9670278078
 21
-742.3635112254
 31
0.0
  0
LINE
  5
32B
330
1F
100
AcDbEntity
  8
0
  6
Continuous
 62
     7
370
    15
100
AcDbLine
 10
-805.0841887241
 20
-742.3635112254
 30
0.0
 11
-806.9670323974
 21
-744.2463539673
 31
0.0
  0
ARC
  5
32C
330
1F
100
AcDbEntity
  8
0
  6
Continuous
 62
     7
370
    15
100
AcDbCircle
 10
-779.1084524686
 20
-742.5049330024
 30
0.0
 40
0.2000000000000498
100
AcDbArc
 50
45.0
 51
90.0
  0
ARC
  5
32D
330
1F
100
AcDbEntity
  8
0
  6
Continuous
 62
     7
370
    15
100
AcDbCircle
 10
-804.9427670436
 20
-742.5049330024
 30
0.0
 40
0.2000000000000455
100
AcDbArc
 50
90.0
 51
135.0
  0
LINE
  5
32E
330
1F
100
AcDbEntity
  8
0
  6
Continuous
 62
     7
370
    15
100
AcDbLine
 10
-782.2756071335
 20
-745.8049325404
 30
0.0
 11
-782.2756071335
 21
-745.3049333898
 31
0.0
  0
LINE
  5
32F
330
1F
100
AcDbEntity
  8
0
  6
Continuous
 62
     7
370
    15
100
AcDbLine
 10
-801.7756093985
 20
-745.3049333898
 30
0.0
 11
-801.7756093985
 21
-745.8049325404
 31
0.0
  0
LINE
  5
330
330
1F
100
AcDbEntity
  8
0
  6
Continuous
 62
     7
370
    15
100
AcDbLine
 10
-763.025616551
 20
-766.8049331886
 30
0.0
 11
-763.025616551
 21
-765.3049329428
 31
0.0
  0
LINE
  5
331
330
1F
100
AcDbEntity
  8
0
  6
Continuous
 62
     7
370
    15
100
AcDbLine
 10
-821.0256074315
 20
-765.3049329428
 30
0.0
 11
-821.0256074315
 21
-766.8049331886
 31
0.0
  0
LINE
  5
332
330
1F
100
AcDbEntity
  8
0
  6
Continuous
 62
     7
370
    15
100
AcDbLine
 10
-121.0255820995
 20
-745.8049325404
 30
0.0
 11
-121.0255820995
 21
-747.3049327863
 31
0.0
  0
LINE
  5
333
330
1F
100
AcDbEntity
  8
0
  6
Continuous
 62
     7
370
    15
100
AcDbLine
 10
-63.0256135708
 20
-747.3049327863
 30
0.0
 11
-63.0256135708
 21
-745.8049325404
 31
0.0
  0
LINE
  5
334
330
1F
100
AcDbEntity
  8
0
  6
Continuous
 62
     7
370
    15
100
AcDbLine
 10
-821.0256074315
 20
-745.8049325404
 30
0.0
 11
-821.0256074315
 21
-747.3049327863
 31
0.0
  0
LINE
  5
335
330
1F
100
AcDbEntity
  8
0
  6
Continuous
 62
     7
370
    15
100
AcDbLine
 10
-763.025616551
 20
-747.3049327863
 30
0.0
 11
-763.025616551
 21
-745.8049325404
 31
0.0
  0
LINE
  5
336
330
1F
100
AcDbEntity
  8
0
  6
Continuous
 62
     7
370
    15
100
AcDbLine
 10
-63.0256135708
 20
-766.8049331886
 30
0.0
 11
-63.0256135708
 21
-765.3049329428
 31
0.0
  0
LINE
  5
337
330
1F
100
AcDbEntity
  8
0
  6
Continuous
 62
     7
370
    15
100
AcDbLine
 10
-121.0255820995
 20
-765.3049329428
 30
0.0
 11
-121.0255820995
 21
-766.8049331886
 31
0.0
  0
ARC
  5
338
330
1F
100
AcDbEntity
  8
0
  6
Continuous
 62
     7
370
    15
100
AcDbCircle
 10
-753.4256097561
 20
-756.3309844256
 30
0.0
 40
12.50000000000007
100
AcDbArc
 50
140.1746287392
 51
219.8253712608
  0
ARC
  5
339
330
1F
100
AcDbEntity
  8
0
  6
Continuous
 62
     7
370
    15
100
AcDbCircle
 10
-830.6256097561
 20
-756.3309844256
 30
0.0
 40
12.4999999999999
100
AcDbArc
 50
320.1746287392
 51
39.8253712608
  0
LINE
  5
33A
330
1F
100
AcDbEntity
  8
0
  6
Continuous
 62
     7
370
    15
100
AcDbLine
 10
-763.025616551
 20
-748.3253615109
 30
0.0
 11
-763.025616551
 21
-747.3049327863
 31
0.0
  0
LINE
  5
33B
330
1F
100
AcDbEntity
  8
0
  6
Continuous
 62
     7
370
    15
100
AcDbLine
 10
-821.0256074315
 20
-747.3049327863
 30
0.0
 11
-821.0256074315
 21
-748.3253615109
 31
0.0
  0
LINE
  5
33C
330
1F
100
AcDbEntity
  8
0
  6
Continuous
 62
     7
370
    15
100
AcDbLine
 10
-763.025616551
 20
-765.3049329428
 30
0.0
 11
-763.025616551
 21
-764.3366070596
 31
0.0
  0
LINE
  5
33D
330
1F
100
AcDbEntity
  8
0
  6
Continuous
 62
     7
370
    15
100
AcDbLine
 10
-821.0256074315
 20
-764.3366070596
 30
0.0
 11
-821.0256074315
 21
-765.3049329428
 31
0.0
  0
LINE
  5
33E
330
1F
100
AcDbEntity
  8
0
  6
Continuous
 62
     7
370
    15
100
AcDbLine
 10
-63.0256135708
 20
-748.3253615109
 30
0.0
 11
-63.0256135708
 21
-747.3049327863
 31
0.0
  0
LINE
  5
33F
330
1F
100
AcDbEntity
  8
0
  6
Continuous
 62
     7
370
    15
100
AcDbLine
 10
-121.0255820995
 20
-747.3049327863
 30
0.0
 11
-121.0255820995
 21
-748.3253615109
 31
0.0
  0
ARC
  5
340
330
1F
100
AcDbEntity
  8
0
  6
Continuous
 62
     7
370
    15
100
AcDbCircle
 10
-53.4256097561
 20
-756.3309844256
 30
0.0
 40
12.50000000000001
100
AcDbArc
 50
140.1746287392
 51
219.8253712608
  0
ARC
  5
341
330
1F
100
AcDbEntity
  8
0
  6
Continuous
 62
     7
370
    15
100
AcDbCircle
 10
-130.6256097561
 20
-756.3309844256
 30
0.0
 40
12.50000000000001
100
AcDbArc
 50
320.1746287392
 51
39.8253712608
  0
LINE
  5
342
330
1F
100
AcDbEntity
  8
0
  6
Continuous
 62
     7
370
    15
100
AcDbLine
 10
-63.0256135708
 20
-765.3049329428
 30
0.0
 11
-63.0256135708
 21
-764.3366070596
 31
0.0
  0
LINE
  5
343
330
1F
100
AcDbEntity
  8
0
  6
Continuous
 62
     7
370
    15
100
AcDbLine
 10
-121.0255820995
 20
-764.3366070596
 30
0.0
 11
-121.0255820995
 21
-765.3049329428
 31
0.0
  0
LINE
  5
344
330
1F
100
AcDbEntity
  8
0
  6
Continuous
 62
     7
370
    15
100
AcDbLine
 10
-777.0256076699
 20
-773.0049329011
 30
0.0
 11
-777.0256076699
 21
-767.604932761
 31
0.0
  0
LINE
  5
345
330
1F
100
AcDbEntity
  8
0
  6
Continuous
 62
     7
370
    15
100
AcDbLine
 10
-807.025608862
 20
-767.604932761
 30
0.0
 11
-807.025608862
 21
-773.0049329011
 31
0.0
  0
LINE
  5
346
330
1F
100
AcDbEntity
  8
0
  6
Continuous
 62
     7
370
    15
100
AcDbLine
 10
-777.0256076699
 20
-767.604932761
 30
0.0
 11
-777.3256127483
 21
-767.3049332706
 31
0.0
  0
LINE
  5
347
330
1F
100
AcDbEntity
  8
0
  6
Continuous
 62
     7
370
    15
100
AcDbLine
 10
-806.7256112343
 20
-767.3049332706
 30
0.0
 11
-807.025608862
 21
-767.604932761
 31
0.0
  0
LINE
  5
348
330
1F
100
AcDbEntity
  8
0
  6
Continuous
 62
     7
370
    15
100
AcDbLine
 10
-807.025608862
 20
-773.0049329011
 30
0.0
 11
-806.7256112343
 21
-773.3049323914
 31
0.0
  0
LINE
  5
349
330
1F
100
AcDbEntity
  8
0
  6
Continuous
 62
     7
370
    15
100
AcDbLine
 10
-777.3256127483
 20
-773.3049323914
 30
0.0
 11
-777.0256076699
 21
-773.0049329011
 31
0.0
  0
LINE
  5
34A
330
1F
100
AcDbEntity
  8
0
  6
Continuous
 62
     7
370
    15
100
AcDbLine
 10
-782.2756071335
 20
-767.3049332706
 30
0.0
 11
-782.2756071335
 21
-766.8049331886
 31
0.0
  0
LINE
  5
34B
330
1F
100
AcDbEntity
  8
0
  6
Continuous
 62
     7
370
    15
100
AcDbLine
 10
-801.7756093985
 20
-766.8049331886
 30
0.0
 11
-801.7756093985
 21
-767.3049332706
 31
0.0
  0
LINE
  5
34C
330
1F
100
AcDbEntity
  8
0
  6
Continuous
 62
     7
370
    15
100
AcDbLine
 10
-77.0256121403
 20
-773.0049329011
 30
0.0
 11
-77.0256121403
 21
-767.604932761
 31
0.0
  0
LINE
  5
34D
330
1F
100
AcDbEntity
  8
0
  6
Continuous
 62
     7
370
    15
100
AcDbLine
 10
-107.0255835301
 20
-767.604932761
 30
0.0
 11
-107.0255835301
 21
-773.0049329011
 31
0.0
  0
LINE
  5
34E
330
1F
100
AcDbEntity
  8
0
  6
Continuous
 62
     7
370
    15
100
AcDbLine
 10
-77.0256121403
 20
-767.604932761
 30
0.0
 11
-77.3256023174
 21
-767.3049332706
 31
0.0
  0
LINE
  5
34F
330
1F
100
AcDbEntity
  8
0
  6
Continuous
 62
     7
370
    15
100
AcDbLine
 10
-106.7255933529
 20
-767.3049332706
 30
0.0
 11
-107.0255835301
 21
-767.604932761
 31
0.0
  0
LINE
  5
350
330
1F
100
AcDbEntity
  8
0
  6
Continuous
 62
     7
370
    15
100
AcDbLine
 10
-107.0255835301
 20
-773.0049329011
 30
0.0
 11
-106.7255933529
 21
-773.3049323914
 31
0.0
  0
LINE
  5
351
330
1F
100
AcDbEntity
  8
0
  6
Continuous
 62
     7
370
    15
100
AcDbLine
 10
-77.3256023174
 20
-773.3049323914
 30
0.0
 11
-77.0256121403
 21
-773.0049329011
 31
0.0
  0
LINE
  5
352
330
1F
100
AcDbEntity
  8
0
  6
Continuous
 62
     7
370
    15
100
AcDbLine
 10
-82.2755892521
 20
-767.3049332706
 30
0.0
 11
-82.2755892521
 21
-766.8049331886
 31
0.0
  0
LINE
  5
353
330
1F
100
AcDbEntity
  8
0
  6
Continuous
 62
     7
370
    15
100
AcDbLine
 10
-101.7756064182
 20
-766.8049331886
 30
0.0
 11
-101.7756064182
 21
-767.3049332706
 31
0.0
  0
LINE
  5
354
330
1F
100
AcDbEntity
  8
0
  6
Continuous
 62
     7
370
    15
100
AcDbLine
 10
1409.9744360203
 20
-768.8309844715
 30
0.0
 11
1409.9744360203
 21
-743.830984099
 31
0.0
  0
LINE
  5
355
330
1F
100
AcDbEntity
  8
0
  6
Continuous
 62
     7
370
    15
100
AcDbLine
 10
-890.0256096611
 20
-768.8309844715
 30
0.0
 11
-890.0256096611
 21
-743.830984099
 31
0.0
  0
LWPOLYLINE
  5
356
330
1F
100
AcDbEntity
  8
0
  6
Continuous
 62
     7
370
    15
100
AcDbPolyline
 90
       13
 70
   128
 43
0.0
 10
252.4564068073
 20
-768.8118802516
 10
252.6936332935
 20
-768.6702121181
 10
253.5502712482
 20
-768.184967911
 10
255.0533811802
 20
-767.4424020706
 10
257.3174040073
 20
-766.6415112225
 10
259.3971292728
 20
-766.3100013641
 10
261.5519563908
 20
-766.4174163846
 10
263.4345094913
 20
-766.8770585341
 10
265.25865004
 20
-767.6079791171
 10
266.7951385731
 20
-768.4044899551
 10
267.4939434284
 20
-768.8126104085
 10
267.5243417972
 20
-768.8309844715
 10
267.5243417972
 20
-768.8309844715
  0
LWPOLYLINE
  5
357
330
1F
100
AcDbEntity
  8
0
  6
Continuous
 62
     7
370
    15
100
AcDbPolyline
 90
       13
 70
   128
 43
0.0
 10
1272.4562685245
 20
-768.8118802516
 10
1272.6937334293
 20
-768.6702121181
 10
1273.550371384
 20
-768.184967911
 10
1275.0533621067
 20
-767.4424020706
 10
1277.3173849338
 20
-766.6415112225
 10
1279.3971101993
 20
-766.3100013641
 10
1281.5519373173
 20
-766.4174163846
 10
1283.4344904179
 20
-766.8770585341
 10
1285.2586309666
 20
-767.6079791171
 10
1286.7950002903
 20
-768.4044899551
 10
1287.4940435642
 20
-768.8126104085
 10
1287.5243227238
 20
-768.8309844715
 10
1287.5243227238
 20
-768.8309844715
  0
LWPOLYLINE
  5
358
330
1F
100
AcDbEntity
  8
0
  6
Continuous
 62
     7
370
    15
100
AcDbPolyline
 90
       13
 70
   128
 43
0.0
 10
-257.5436432606
 20
-768.8118802516
 10
-257.3063571697
 20
-768.6702121181
 10
-256.449719215
 20
-768.184967911
 10
-254.9466092831
 20
-767.4424020706
 10
-252.6825864559
 20
-766.6415112225
 10
-250.6029207951
 20
-766.3100013641
 10
-248.4480936771
 20
-766.4174163846
 10
-246.5655405766
 20
-766.8770585341
 10
-244.7414000279
 20
-767.6079791171
 10
-243.2049114948
 20
-768.4044899551
 10
-242.5060470348
 20
-768.8126104085
 10
-242.4755890614
 20
-768.8309844715
 10
-242.4755890614
 20
-768.8309844715
  0
LWPOLYLINE
  5
359
330
1F
100
AcDbEntity
  8
0
  6
Continuous
 62
     7
370
    15
100
AcDbPolyline
 90
       13
 70
   128
 43
0.0
 10
-767.543648625
 20
-768.8118802516
 10
-767.3063401824
 20
-768.6702121181
 10
-766.4497394806
 20
-768.184967911
 10
-764.9465997463
 20
-767.4424020706
 10
-762.6825769192
 20
-766.6415112225
 10
-760.6029261595
 20
-766.3100013641
 10
-758.4480841404
 20
-766.4174163846
 10
-756.5655310398
 20
-766.8770585341
 10
-754.74137559
 20
-767.6079791171
 10
-753.2049019581
 20
-768.4044899551
 10
-752.5060673004
 20
-768.8126104085
 10
-752.4756093269
 20
-768.8309844715
 10
-752.4756093269
 20
-768.8309844715
  0
LWPOLYLINE
  5
35A
330
1F
100
AcDbEntity
  8
0
  6
Continuous
 62
     7
370
    15
100
AcDbPolyline
 90
       13
 70
   128
 43
0.0
 10
762.4563972706
 20
-768.8118802516
 10
762.6936237568
 20
-768.6702121181
 10
763.5502617115
 20
-768.184967911
 10
765.0533716434
 20
-767.4424020706
 10
767.3173944706
 20
-766.6415112225
 10
769.3971197361
 20
-766.3100013641
 10
771.551946854
 20
-766.4174163846
 10
773.4344999546
 20
-766.8770585341
 10
775.2586405033
 20
-767.6079791171
 10
776.7951290363
 20
-768.4044899551
 10
777.4939338917
 20
-768.8126104085
 10
777.5243322605
 20
-768.8309844715
 10
777.5243322605
 20
-768.8309844715
  0
LINE
  5
35B
330
1F
100
AcDbEntity
  8
0
  6
Continuous
 62
     7
370
    15
100
AcDbLine
 10
-754.0971387869
 20
-769.7322895882
 30
0.0
 11
-752.5756110197
 21
-769.7322895882
 31
0.0
  0
LINE
  5
35C
330
1F
100
AcDbEntity
  8
0
  6
Continuous
 62
     7
370
    15
100
AcDbLine
 10
-767.475609923
 20
-769.7322895882
 30
0.0
 11
-754.0971387869
 21
-769.7322895882
 31
0.0
  0
LINE
  5
35D
330
1F
100
AcDbEntity
  8
0
  6
Continuous
 62
     7
370
    15
100
AcDbLine
 10
-754.8929054981
 20
-770.7322897522
 30
0.0
 11
-766.4756078964
 21
-770.7322897522
 31
0.0
  0
LINE
  5
35E
330
1F
100
AcDbEntity
  8
0
  6
Continuous
 62
     7
370
    15
100
AcDbLine
 10
-753.5756130463
 20
-770.7322897522
 30
0.0
 11
-754.8929054981
 21
-770.7322897522
 31
0.0
  0
LINE
  5
35F
330
1F
100
AcDbEntity
  8
0
  6
Continuous
 62
     7
370
    15
100
AcDbLine
 10
-244.0971334225
 20
-769.7322895882
 30
0.0
 11
-242.5756056553
 21
-769.7322895882
 31
0.0
  0
LINE
  5
360
330
1F
100
AcDbEntity
  8
0
  6
Continuous
 62
     7
370
    15
100
AcDbLine
 10
-257.4756343609
 20
-769.7322895882
 30
0.0
 11
-244.0971334225
 21
-769.7322895882
 31
0.0
  0
LINE
  5
361
330
1F
100
AcDbEntity
  8
0
  6
Continuous
 62
     7
370
    15
100
AcDbLine
 10
-244.8929150349
 20
-770.7322897522
 30
0.0
 11
-256.4755876309
 21
-770.7322897522
 31
0.0
  0
LINE
  5
362
330
1F
100
AcDbEntity
  8
0
  6
Continuous
 62
     7
370
    15
100
AcDbLine
 10
-243.5755927807
 20
-770.7322897522
 30
0.0
 11
-244.8929150349
 21
-770.7322897522
 31
0.0
  0
LINE
  5
363
330
1F
100
AcDbEntity
  8
0
  6
Continuous
 62
     7
370
    15
100
AcDbLine
 10
775.902847504
 20
-769.7322895882
 30
0.0
 11
777.4244348759
 21
-769.7322895882
 31
0.0
  0
LINE
  5
364
330
1F
100
AcDbEntity
  8
0
  6
Continuous
 62
     7
370
    15
100
AcDbLine
 10
762.5243465656
 20
-769.7322895882
 30
0.0
 11
775.902847504
 21
-769.7322895882
 31
0.0
  0
LINE
  5
365
330
1F
100
AcDbEntity
  8
0
  6
Continuous
 62
     7
370
    15
100
AcDbLine
 10
775.1071254963
 20
-770.7322897522
 30
0.0
 11
763.5243932957
 21
-770.7322897522
 31
0.0
  0
LINE
  5
366
330
1F
100
AcDbEntity
  8
0
  6
Continuous
 62
     7
370
    15
100
AcDbLine
 10
776.4243881458
 20
-770.7322897522
 30
0.0
 11
775.1071254963
 21
-770.7322897522
 31
0.0
  0
LINE
  5
367
330
1F
100
AcDbEntity
  8
0
  6
Continuous
 62
     7
370
    15
100
AcDbLine
 10
1285.9028379673
 20
-769.7322895882
 30
0.0
 11
1287.4244253391
 21
-769.7322895882
 31
0.0
  0
LINE
  5
368
330
1F
100
AcDbEntity
  8
0
  6
Continuous
 62
     7
370
    15
100
AcDbLine
 10
1272.5244562382
 20
-769.7322895882
 30
0.0
 11
1285.9028379673
 21
-769.7322895882
 31
0.0
  0
LINE
  5
369
330
1F
100
AcDbEntity
  8
0
  6
Continuous
 62
     7
370
    15
100
AcDbLine
 10
1285.1069967503
 20
-770.7322897522
 30
0.0
 11
1273.5243837589
 21
-770.7322897522
 31
0.0
  0
LINE
  5
36A
330
1F
100
AcDbEntity
  8
0
  6
Continuous
 62
     7
370
    15
100
AcDbLine
 10
1286.4244978184
 20
-770.7322897522
 30
0.0
 11
1285.1069967503
 21
-770.7322897522
 31
0.0
  0
LINE
  5
36B
330
1F
100
AcDbEntity
  8
0
  6
Continuous
 62
     7
370
    15
100
AcDbLine
 10
-807.025608862
 20
-772.930984026
 30
0.0
 11
-846.0256096667
 21
-772.930984026
 31
0.0
  0
LINE
  5
36C
330
1F
100
AcDbEntity
  8
0
  6
Continuous
 62
     7
370
    15
100
AcDbLine
 10
-807.025608862
 20
-780.9309853373
 30
0.0
 11
-846.0256096667
 21
-780.9309853373
 31
0.0
  0
LINE
  5
36D
330
1F
100
AcDbEntity
  8
0
  6
Continuous
 62
     7
370
    15
100
AcDbLine
 10
1326.4950315708
 20
-780.9309853373
 30
0.0
 11
1325.974325394
 21
-780.9309853373
 31
0.0
  0
LINE
  5
36E
330
1F
100
AcDbEntity
  8
0
  6
Continuous
 62
     7
370
    15
100
AcDbLine
 10
1365.9742872471
 20
-780.9309853373
 30
0.0
 11
1326.4950315708
 21
-780.9309853373
 31
0.0
  0
LINE
  5
36F
330
1F
100
AcDbEntity
  8
0
  6
Continuous
 62
     7
370
    15
100
AcDbLine
 10
1326.4950315708
 20
-772.930984026
 30
0.0
 11
1325.974325394
 21
-772.930984026
 31
0.0
  0
LINE
  5
370
330
1F
100
AcDbEntity
  8
0
  6
Continuous
 62
     7
370
    15
100
AcDbLine
 10
1365.9742872471
 20
-772.930984026
 30
0.0
 11
1326.4950315708
 21
-772.930984026
 31
0.0
  0
LINE
  5
371
330
1F
100
AcDbEntity
  8
0
  6
Continuous
 62
     7
370
    15
100
AcDbLine
 10
-810.0256074911
 20
-742.1309841929
 30
0.0
 11
-842.025609011
 21
-742.1309841929
 31
0.0
  0
LINE
  5
372
330
1F
100
AcDbEntity
  8
0
  6
Continuous
 62
     7
370
    15
100
AcDbLine
 10
-840.2256083435
 20
-740.3309844566
 30
0.0
 11
-811.8256081587
 21
-740.3309844566
 31
0.0
  0
SPLINE
  5
373
330
1F
100
AcDbEntity
  8
0
  6
Continuous
 62
     7
370
    15
100
AcDbSpline
210
0.0
220
0.0
230
1.0
 70
     8
 71
     3
 72
    10
 73
     6
 74
     0
 42
0.00000001
 43
0.00000001
 40
0.0
 40
0.0
 40
0.0
 40
0.0
 40
0.2371444491818316
 40
0.6851243029475459
 40
1.0
 40
1.0
 40
1.0
 40
1.0
 10
-810.1265107041448
 20
-768.8026024160673
 30
0.0
 10
-810.1074683214173
 20
-768.8264365117383
 30
0.0
 10
-810.0524537543987
 20
-768.8952946201159
 30
0.0
 10
-810.6360766682184
 20
-768.1655541392691
 30
0.0
 10
-811.3391938769856
 20
-767.2024594467907
 30
0.0
 10
-811.6294120198339
 20
-766.804933188646
 30
0.0
  0
SPLINE
  5
374
330
1F
100
AcDbEntity
  8
0
  6
Continuous
 62
     7
370
    15
100
AcDbSpline
210
0.0
220
0.0
230
1.0
 70
     8
 71
     3
 72
    10
 73
     6
 74
     0
 42
0.00000001
 43
0.00000001
 40
0.0
 40
0.0
 40
0.0
 40
0.0
 40
0.3258668321900742
 40
0.7941890956614035
 40
0.9999999999999999
 40
0.9999999999999999
 40
0.9999999999999999
 40
0.9999999999999999
 10
-811.6008688455671
 20
-745.8049325404455
 30
0.0
 10
-811.3126252885247
 20
-745.4160536413599
 30
0.0
 10
-810.6101300748843
 20
-744.4682941559557
 30
0.0
 10
-810.09175160547
 20
-743.8157634517368
 30
0.0
 10
-810.0410779970559
 20
-743.750813347614
 30
0.0
 10
-810.0256074911207
 20
-743.7309842688729
 30
0.0
  0
SPLINE
  5
375
330
1F
100
AcDbEntity
  8
0
  6
Continuous
 62
     7
370
    15
100
AcDbSpline
210
0.0
220
0.0
230
1.0
 70
     8
 71
     3
 72
    22
 73
    18
 74
     0
 42
0.00000001
 43
0.00000001
 40
0.0
 40
0.0
 40
0.0
 40
0.0
 40
0.0870777599190978
 40
0.1738038493586143
 40
0.2313481965222977
 40
0.2905521566990665
 40
0.3488893436459136
 40
0.4089778473778076
 40
0.477943699720293
 40
0.5473137348902332
 40
0.6291798765502328
 40
0.6881376910943754
 40
0.7487575914865442
 40
0.8086819438330766
 40
0.8706630749056211
 40
0.9564113612208249
 40
1.0
 40
1.0
 40
1.0
 40
1.0
 10
-842.0256090110391
 20
-743.7309842688729
 30
0.0
 10
-841.942985345161
 20
-743.835121413406
 30
0.0
 10
-841.7780716956697
 20
-744.042975136307
 30
0.0
 10
-840.7313942099835
 20
-745.4043581664054
 30
0.0
 10
-839.6048078932712
 20
-746.97521460586
 30
0.0
 10
-838.5337431226611
 20
-748.5954849187913
 30
0.0
 10
-837.4532827923263
 20
-750.4739340351315
 30
0.0
 10
-836.4483606415729
 20
-752.7079980044844
 30
0.0
 10
-835.7851270852814
 20
-755.3883093869895
 30
0.0
 10
-835.967353369728
 20
-758.5164632208845
 30
0.0
 10
-836.9543393380445
 20
-761.2040459866323
 30
0.0
 10
-838.1449205510083
 20
-763.4295010023781
 30
0.0
 10
-839.2516738763356
 20
-765.1724683069923
 30
0.0
 10
-840.3164512040478
 20
-766.6881021888373
 30
0.0
 10
-841.310855291104
 20
-768.0196472191847
 30
0.0
 10
-841.9994500839956
 20
-768.8979403709095
 30
0.0
 10
-841.9435462841145
 20
-768.8266338639487
 30
0.0
 10
-841.924705798015
 20
-768.8026024160673
 30
0.0
  0
LINE
  5
376
330
1F
100
AcDbEntity
  8
0
  6
Continuous
 62
     7
370
    15
100
AcDbLine
 10
1361.9743387455
 20
-742.1309841929
 30
0.0
 11
1329.9742738956
 21
-742.1309841929
 31
0.0
  0
LINE
  5
377
330
1F
100
AcDbEntity
  8
0
  6
Continuous
 62
     7
370
    15
100
AcDbLine
 10
1331.7743341679
 20
-740.3309844566
 30
0.0
 11
1360.1742784733
 21
-740.3309844566
 31
0.0
  0
SPLINE
  5
378
330
1F
100
AcDbEntity
  8
0
  6
Continuous
 62
     7
370
    15
100
AcDbSpline
210
0.0
220
0.0
230
1.0
 70
     8
 71
     3
 72
    22
 73
    18
 74
     0
 42
0.00000001
 43
0.00000001
 40
0.0
 40
0.0
 40
0.0
 40
0.0
 40
0.0870778353135216
 40
0.1738046208854671
 40
0.2313498195997331
 40
0.2905519681634319
 40
0.3488905782451872
 40
0.4089776576733388
 40
0.4779441140541218
 40
0.547314112163995
 40
0.6291811296145167
 40
0.6881390224337198
 40
0.7487573289936972
 40
0.8086815384567049
 40
0.8706624270412151
 40
0.9564113610288467
 40
0.9999999999999999
 40
0.9999999999999999
 40
0.9999999999999999
 40
0.9999999999999999
 10
1329.974273895636
 20
-743.7309842688729
 30
0.0
 10
1330.056904868272
 20
-743.8351208016586
 30
0.0
 10
1330.221833691095
 20
-744.0429740462409
 30
0.0
 10
1331.268562025099
 20
-745.4043774315076
 30
0.0
 10
1332.395358980116
 20
-746.9751624077986
 30
0.0
 10
1333.466082763554
 20
-748.5955589134192
 30
0.0
 10
1334.54687246019
 20
-750.4738600773695
 30
0.0
 10
1335.551438272209
 20
-752.7080606908012
 30
0.0
 10
1336.214929482659
 20
-755.3882809016291
 30
0.0
 10
1336.032715949041
 20
-758.5164907771637
 30
0.0
 10
1335.045585215767
 20
-761.2040341796923
 30
0.0
 10
1333.854970333814
 20
-763.4294686687298
 30
0.0
 10
1332.748434450366
 20
-765.1724964620123
 30
0.0
 10
1331.683611184631
 20
-766.6880959949419
 30
0.0
 10
1330.689319441896
 20
-768.0196581054217
 30
0.0
 10
1330.00047422341
 20
-768.8979384919552
 30
0.0
 10
1330.056486442515
 20
-768.8266333003759
 30
0.0
 10
1330.075363373175
 20
-768.8026024160673
 30
0.0
  0
SPLINE
  5
379
330
1F
100
AcDbEntity
  8
0
  6
Continuous
 62
     7
370
    15
100
AcDbSpline
210
0.0
220
0.0
230
1.0
 70
     8
 71
     3
 72
    22
 73
    18
 74
     0
 42
0.00000001
 43
0.00000001
 40
0.0
 40
0.0
 40
0.0
 40
0.0
 40
0.0424483279365357
 40
0.1226355426818752
 40
0.2089114617882263
 40
0.3120090212902172
 40
0.3621947222046468
 40
0.4135779372902736
 40
0.4821779581612439
 40
0.5511346294633485
 40
0.6347837107425716
 40
0.6944717468633949
 40
0.7558514665429441
 40
0.816193761295616
 40
0.8787131221051139
 40
0.962971535505608
 40
1.0
 40
1.0
 40
1.0
 40
1.0
 10
1361.87348768653
 20
-768.8026024160673
 30
0.0
 10
1361.893455123474
 20
-768.8280700484894
 30
0.0
 10
1361.951142141661
 20
-768.901647432446
 30
0.0
 10
1361.234974447346
 20
-767.9883154656133
 30
0.0
 10
1359.902550094243
 20
-766.2050573330617
 30
0.0
 10
1358.389966946947
 20
-763.9644416894478
 30
0.0
 10
1357.178064247359
 20
-761.7218107577191
 30
0.0
 10
1356.3067111361
 20
-759.6568819922519
 30
0.0
 10
1355.717931563027
 20
-757.085358220074
 30
0.0
 10
1355.960670140227
 20
-753.9513286909774
 30
0.0
 10
1356.992477473918
 20
-751.2623550387601
 30
0.0
 10
1358.214405033325
 20
-749.029560152704
 30
0.0
 10
1359.331987896106
 20
-747.2952250119199
 30
0.0
 10
1360.38756097911
 20
-745.8061275387355
 30
0.0
 10
1361.363841453673
 20
-744.508246490989
 30
0.0
 10
1361.909987334656
 20
-743.8129695764053
 30
0.0
 10
1361.959287557808
 20
-743.750159858574
 30
0.0
 10
1361.97433874549
 20
-743.7309842688729
 30
0.0
  0
LWPOLYLINE
  5
37A
330
1F
100
AcDbEntity
  8
0
  6
Continuous
 62
     7
370
    15
100
AcDbPolyline
 90
       13
 70
   128
 43
0.0
 10
777.4464885944
 20
-743.8475197313
 10
777.1988909
 20
-743.9942998944
 10
776.337603783
 20
-744.4781005515
 10
774.8309175724
 20
-745.214054933
 10
772.5707094425
 20
-745.999424359
 10
770.5007593388
 20
-746.3171403987
 10
768.3623831028
 20
-746.2018957494
 10
766.4886514896
 20
-745.7408668605
 10
764.6766702885
 20
-745.0143914802
 10
763.1678383106
 20
-744.2343305928
 10
762.4991934055
 20
-743.8458293808
 10
762.4743978733
 20
-743.830984099
 10
762.4743978733
 20
-743.830984099
  0
LWPOLYLINE
  5
37B
330
1F
100
AcDbEntity
  8
0
  6
Continuous
 62
     7
370
    15
100
AcDbPolyline
 90
       13
 70
   128
 43
0.0
 10
1287.446598267
 20
-743.8475197313
 10
1287.1988813633
 20
-743.9942998944
 10
1286.3377134556
 20
-744.4781005515
 10
1284.8309080357
 20
-745.214054933
 10
1282.5706999058
 20
-745.999424359
 10
1280.500749802
 20
-746.3171403987
 10
1278.362373566
 20
-746.2018957494
 10
1276.4886419529
 20
-745.7408668605
 10
1274.6766607517
 20
-745.0143914802
 10
1273.1679479832
 20
-744.2343305928
 10
1272.4991838688
 20
-743.8458293808
 10
1272.4743883366
 20
-743.830984099
 10
1272.4743883366
 20
-743.830984099
  0
LINE
  5
37C
330
1F
100
AcDbEntity
  8
0
  6
Continuous
 62
     7
370
    15
100
AcDbLine
 10
252.4832288975
 20
-743.830984099
 30
0.0
 11
252.5207798237
 21
-743.863476081
 31
0.0
  0
LWPOLYLINE
  5
37D
330
1F
100
AcDbEntity
  8
0
  6
Continuous
 62
     7
370
    15
100
AcDbPolyline
 90
       13
 70
   128
 43
0.0
 10
267.4109737629
 20
-743.8736684752
 10
267.2880689854
 20
-743.9942998944
 10
266.5226261372
 20
-744.4781005515
 10
265.1023666614
 20
-745.214054933
 10
262.9089157337
 20
-745.999424359
 10
260.8629266971
 20
-746.3171403987
 10
258.719543671
 20
-746.2018957494
 10
256.8148176426
 20
-745.7408668605
 10
254.9403707737
 20
-745.0143914802
 10
253.328661179
 20
-744.2343305928
 10
252.5374691242
 20
-743.8458293808
 10
252.4832288975
 20
-743.830984099
 10
252.4832288975
 20
-743.830984099
  0
LWPOLYLINE
  5
37E
330
1F
100
AcDbEntity
  8
0
  6
Continuous
 62
     7
370
    15
100
AcDbPolyline
 90
       13
 70
   128
 43
0.0
 10
-752.5534678942
 20
-743.8475197313
 10
-752.8010804897
 20
-743.9942998944
 10
-753.6623676067
 20
-744.4781005515
 10
-755.1690538174
 20
-745.214054933
 10
-757.4292321449
 20
-745.999424359
 10
-759.4992418533
 20
-746.3171403987
 10
-761.6375733858
 20
-746.2018957494
 10
-763.5113795048
 20
-745.7408668605
 10
-765.323271299
 20
-745.0143914802
 10
-766.8321479803
 20
-744.2343305928
 10
-767.5008450395
 20
-743.8458293808
 10
-767.5256107694
 20
-743.830984099
 10
-767.5256107694
 20
-743.830984099
  0
LWPOLYLINE
  5
37F
330
1F
100
AcDbEntity
  8
0
  6
Continuous
 62
     7
370
    15
100
AcDbPolyline
 90
       13
 70
   128
 43
0.0
 10
-242.5534923321
 20
-743.8475197313
 10
-242.8010900265
 20
-743.9942998944
 10
-243.6623771435
 20
-744.4781005515
 10
-245.1690633541
 20
-745.214054933
 10
-247.4292118794
 20
-745.999424359
 10
-249.4992215878
 20
-746.3171403987
 10
-251.6375978237
 20
-746.2018957494
 10
-253.5113890415
 20
-745.7408668605
 10
-255.3232510334
 20
-745.0143914802
 10
-256.8321426159
 20
-744.2343305928
 10
-257.5008471256
 20
-743.8458293808
 10
-257.5255830532
 20
-743.830984099
 10
-257.5255830532
 20
-743.830984099
  0
LINE
  5
380
330
1F
100
AcDbEntity
  8
0
  6
Continuous
 62
     7
370
    15
100
AcDbLine
 10
252.5243561024
 20
-769.7322895882
 30
0.0
 11
267.4244444126
 21
-769.7322895882
 31
0.0
  0
LINE
  5
381
330
1F
100
AcDbEntity
  8
0
  6
Continuous
 62
     7
370
    15
100
AcDbLine
 10
253.5244028324
 20
-770.7322897522
 30
0.0
 11
266.4243976826
 21
-770.7322897522
 31
0.0
  0
LINE
  5
382
330
1F
100
AcDbEntity
  8
0
  6
Continuous
 62
     7
370
    15
100
AcDbLine
 10
-735.0256045109
 20
-736.8309838829
 30
0.0
 11
-785.0256089812
 21
-736.8309838829
 31
0.0
  0
LINE
  5
383
330
1F
100
AcDbEntity
  8
0
  6
Continuous
 62
     7
370
    15
100
AcDbLine
 10
-735.0550194031
 20
-738.8309842108
 30
0.0
 11
-735.0256045109
 21
-738.8309842108
 31
0.0
  0
LINE
  5
384
330
1F
100
AcDbEntity
  8
0
  6
Continuous
 62
     7
370
    15
100
AcDbLine
 10
-785.0256089812
 20
-738.8309842108
 30
0.0
 11
-735.0550194031
 21
-738.8309842108
 31
0.0
  0
LINE
  5
385
330
1F
100
AcDbEntity
  8
0
  6
Continuous
 62
     7
370
    15
100
AcDbLine
 10
-736.0256065374
 20
-739.8309843747
 30
0.0
 11
-784.0256069547
 21
-739.8309843747
 31
0.0
  0
LINE
  5
386
330
1F
100
AcDbEntity
  8
0
  6
Continuous
 62
     7
370
    15
100
AcDbLine
 10
283.9743892902
 20
-739.8309843747
 30
0.0
 11
235.9744112247
 21
-739.8309843747
 31
0.0
  0
LINE
  5
387
330
1F
100
AcDbEntity
  8
0
  6
Continuous
 62
     7
370
    15
100
AcDbLine
 10
234.9743644947
 20
-738.8309842108
 30
0.0
 11
284.9744360203
 21
-738.8309842108
 31
0.0
  0
LINE
  5
388
330
1F
100
AcDbEntity
  8
0
  6
Continuous
 62
     7
370
    15
100
AcDbLine
 10
284.9744360203
 20
-736.8309838829
 30
0.0
 11
234.9743644947
 21
-736.8309838829
 31
0.0
  0
LINE
  5
389
330
1F
100
AcDbEntity
  8
0
  6
Continuous
 62
     7
370
    15
100
AcDbLine
 10
793.9743797535
 20
-739.8309843747
 30
0.0
 11
745.974401688
 21
-739.8309843747
 31
0.0
  0
LINE
  5
38A
330
1F
100
AcDbEntity
  8
0
  6
Continuous
 62
     7
370
    15
100
AcDbLine
 10
794.944981789
 20
-738.8309842108
 30
0.0
 11
794.9744264835
 21
-738.8309842108
 31
0.0
  0
LINE
  5
38B
330
1F
100
AcDbEntity
  8
0
  6
Continuous
 62
     7
370
    15
100
AcDbLine
 10
744.974354958
 20
-738.8309842108
 30
0.0
 11
794.944981789
 21
-738.8309842108
 31
0.0
  0
LINE
  5
38C
330
1F
100
AcDbEntity
  8
0
  6
Continuous
 62
     7
370
    15
100
AcDbLine
 10
794.9744264835
 20
-736.8309838829
 30
0.0
 11
744.974354958
 21
-736.8309838829
 31
0.0
  0
LINE
  5
38D
330
1F
100
AcDbEntity
  8
0
  6
Continuous
 62
     7
370
    15
100
AcDbLine
 10
1303.974489426
 20
-739.8309843747
 30
0.0
 11
1255.9743921513
 21
-739.8309843747
 31
0.0
  0
LINE
  5
38E
330
1F
100
AcDbEntity
  8
0
  6
Continuous
 62
     7
370
    15
100
AcDbLine
 10
1304.9450914616
 20
-738.8309842108
 30
0.0
 11
1304.9744169468
 21
-738.8309842108
 31
0.0
  0
LINE
  5
38F
330
1F
100
AcDbEntity
  8
0
  6
Continuous
 62
     7
370
    15
100
AcDbLine
 10
1254.9744646305
 20
-738.8309842108
 30
0.0
 11
1304.9450914616
 21
-738.8309842108
 31
0.0
  0
LINE
  5
390
330
1F
100
AcDbEntity
  8
0
  6
Continuous
 62
     7
370
    15
100
AcDbLine
 10
1304.9744169468
 20
-736.8309838829
 30
0.0
 11
1254.9744646305
 21
-736.8309838829
 31
0.0
  0
LINE
  5
391
330
1F
100
AcDbEntity
  8
0
  6
Continuous
 62
     7
370
    15
100
AcDbLine
 10
-225.0549991375
 20
-738.8309842108
 30
0.0
 11
-225.0256140476
 21
-738.8309842108
 31
0.0
  0
LINE
  5
392
330
1F
100
AcDbEntity
  8
0
  6
Continuous
 62
     7
370
    15
100
AcDbLine
 10
-275.0256259686
 20
-738.8309842108
 30
0.0
 11
-225.0549991375
 21
-738.8309842108
 31
0.0
  0
LINE
  5
393
330
1F
100
AcDbEntity
  8
0
  6
Continuous
 62
     7
370
    15
100
AcDbLine
 10
-225.0256140476
 20
-736.8309838829
 30
0.0
 11
-275.0256259686
 21
-736.8309838829
 31
0.0
  0
LINE
  5
394
330
1F
100
AcDbEntity
  8
0
  6
Continuous
 62
     7
370
    15
100
AcDbLine
 10
-226.025601173
 20
-739.8309843747
 30
0.0
 11
-274.0256388432
 21
-739.8309843747
 31
0.0
  0
LINE
  5
395
330
1F
100
AcDbEntity
  8
0
  6
Continuous
 62
     7
370
    15
100
AcDbLine
 10
1410.1744692081
 20
-746.8893999366
 30
0.0
 11
1410.1744692081
 21
-768.8309844715
 31
0.0
  0
LINE
  5
396
330
1F
100
AcDbEntity
  8
0
  6
Continuous
 62
     7
370
    15
100
AcDbLine
 10
1410.1744692081
 20
-743.830984099
 30
0.0
 11
1410.1744692081
 21
-746.8893999366
 31
0.0
  0
LINE
  5
397
330
1F
100
AcDbEntity
  8
0
  6
Continuous
 62
     7
370
    15
100
AcDbLine
 10
1411.7744962925
 20
-746.8893999366
 30
0.0
 11
1411.7744962925
 21
-743.830984099
 31
0.0
  0
LINE
  5
398
330
1F
100
AcDbEntity
  8
0
  6
Continuous
 62
     7
370
    15
100
AcDbLine
 10
1411.7744962925
 20
-768.8309844715
 30
0.0
 11
1411.7744962925
 21
-746.8893999366
 31
0.0
  0
LINE
  5
399
330
1F
100
AcDbEntity
  8
0
  6
Continuous
 62
     7
370
    15
100
AcDbLine
 10
1411.9742910618
 20
-747.0404655805
 30
0.0
 11
1411.9742910618
 21
-768.6309848113
 31
0.0
  0
LINE
  5
39A
330
1F
100
AcDbEntity
  8
0
  6
Continuous
 62
     7
370
    15
100
AcDbLine
 10
1411.9742910618
 20
-744.0309846906
 30
0.0
 11
1411.9742910618
 21
-747.0404655805
 31
0.0
  0
LINE
  5
39B
330
1F
100
AcDbEntity
  8
0
  6
Continuous
 62
     7
370
    15
100
AcDbLine
 10
-891.8256097611
 20
-743.830984099
 30
0.0
 11
-891.8256097611
 21
-768.8309844715
 31
0.0
  0
LINE
  5
39C
330
1F
100
AcDbEntity
  8
0
  6
Continuous
 62
     7
370
    15
100
AcDbLine
 10
-890.225609787
 20
-768.8309844715
 30
0.0
 11
-890.225609787
 21
-743.830984099
 31
0.0
  0
LINE
  5
39D
330
1F
100
AcDbEntity
  8
0
  6
Continuous
 62
     7
370
    15
100
AcDbLine
 10
-892.0256097561
 20
-768.6309848113
 30
0.0
 11
-892.0256097561
 21
-744.0309846906
 31
0.0
  0
LINE
  5
39E
330
1F
100
AcDbEntity
  8
0
  6
Continuous
 62
     7
370
    15
100
AcDbLine
 10
-813.1084491259
 20
-784.9309841303
 30
0.0
 11
-838.9427673763
 21
-784.9309841303
 31
0.0
  0
LINE
  5
39F
330
1F
100
AcDbEntity
  8
0
  6
Continuous
 62
     7
370
    15
100
AcDbLine
 10
1357.9064409489
 20
-784.9309841303
 30
0.0
 11
1333.057264542
 21
-784.9309841303
 31
0.0
  0
LINE
  5
3A0
330
1F
100
AcDbEntity
  8
0
  6
Continuous
 62
     7
370
    15
100
AcDbLine
 10
1358.8915865177
 20
-784.9309841303
 30
0.0
 11
1357.9064409489
 21
-784.9309841303
 31
0.0
  0
LINE
  5
3A1
330
1F
100
AcDbEntity
  8
0
  6
Continuous
 62
     7
370
    15
100
AcDbLine
 10
-107.0255835301
 20
-773.1049327312
 30
0.0
 11
-106.9256265408
 21
-773.1049327312
 31
0.0
  0
LINE
  5
3A2
330
1F
100
AcDbEntity
  8
0
  6
Continuous
 62
     7
370
    15
100
AcDbLine
 10
-77.1256287342
 20
-773.1049327312
 30
0.0
 11
-77.0256121403
 21
-773.1049327312
 31
0.0
  0
LINE
  5
3A3
330
1F
100
AcDbEntity
  8
0
  6
Continuous
 62
     7
370
    15
100
AcDbLine
 10
-777.1256093627
 20
-773.1049327312
 30
0.0
 11
-777.0256076699
 21
-773.1049327312
 31
0.0
  0
LINE
  5
3A4
330
1F
100
AcDbEntity
  8
0
  6
Continuous
 62
     7
370
    15
100
AcDbLine
 10
-807.025608862
 20
-779.3049333749
 30
0.0
 11
-777.0256076699
 21
-779.3049333749
 31
0.0
  0
LINE
  5
3A5
330
1F
100
AcDbEntity
  8
0
  6
Continuous
 62
     7
370
    15
100
AcDbLine
 10
-807.025608862
 20
-782.3049338666
 30
0.0
 11
-777.0256076699
 21
-782.3049338666
 31
0.0
  0
LINE
  5
3A6
330
1F
100
AcDbEntity
  8
0
  6
Continuous
 62
     7
370
    15
100
AcDbLine
 10
-805.0256122595
 20
-784.3049323318
 30
0.0
 11
-779.0256117231
 21
-784.3049323318
 31
0.0
  0
LINE
  5
3A7
330
1F
100
AcDbEntity
  8
0
  6
Continuous
 62
     7
370
    15
100
AcDbLine
 10
-107.0255835301
 20
-782.3049338666
 30
0.0
 11
-77.0256121403
 21
-782.3049338666
 31
0.0
  0
LINE
  5
3A8
330
1F
100
AcDbEntity
  8
0
  6
Continuous
 62
     7
370
    15
100
AcDbLine
 10
-107.0255835301
 20
-779.3049333749
 30
0.0
 11
-77.0256121403
 21
-779.3049333749
 31
0.0
  0
LINE
  5
3A9
330
1F
100
AcDbEntity
  8
0
  6
Continuous
 62
     7
370
    15
100
AcDbLine
 10
-105.0256092793
 20
-784.3049323318
 30
0.0
 11
-79.0255863911
 21
-784.3049323318
 31
0.0
  0
LINE
  5
3AA
330
1F
100
AcDbEntity
  8
0
  6
Continuous
 62
     7
370
    15
100
AcDbLine
 10
-77.2255857235
 20
-745.3049333898
 30
0.0
 11
-106.8256099468
 21
-745.3049333898
 31
0.0
  0
LINE
  5
3AB
330
1F
100
AcDbEntity
  8
0
  6
Continuous
 62
     7
370
    15
100
AcDbLine
 10
-104.942758823
 20
-742.3049328981
 30
0.0
 11
-79.1084368473
 21
-742.3049328981
 31
0.0
  0
LINE
  5
3AC
330
1F
100
AcDbEntity
  8
0
  6
Continuous
 62
     7
370
    15
100
AcDbLine
 10
-777.2256110555
 20
-745.3049333898
 30
0.0
 11
-806.8256129271
 21
-745.3049333898
 31
0.0
  0
LINE
  5
3AD
330
1F
100
AcDbEntity
  8
0
  6
Continuous
 62
     7
370
    15
100
AcDbLine
 10
-804.9427692538
 20
-742.3049328981
 30
0.0
 11
-779.1084547287
 21
-742.3049328981
 31
0.0
  0
LINE
  5
3AE
330
1F
100
AcDbEntity
  8
0
  6
Continuous
 62
     7
370
    15
100
AcDbLine
 10
-821.0256074315
 20
-766.8049331886
 30
0.0
 11
-763.025616551
 21
-766.8049331886
 31
0.0
  0
LINE
  5
3AF
330
1F
100
AcDbEntity
  8
0
  6
Continuous
 62
     7
370
    15
100
AcDbLine
 10
-821.0256074315
 20
-765.3049329428
 30
0.0
 11
-763.025616551
 21
-765.3049329428
 31
0.0
  0
LINE
  5
3B0
330
1F
100
AcDbEntity
  8
0
  6
Continuous
 62
     7
370
    15
100
AcDbLine
 10
-63.0256135708
 20
-745.8049325404
 30
0.0
 11
-121.0255820995
 21
-745.8049325404
 31
0.0
  0
LINE
  5
3B1
330
1F
100
AcDbEntity
  8
0
  6
Continuous
 62
     7
370
    15
100
AcDbLine
 10
-63.0256135708
 20
-747.3049327863
 30
0.0
 11
-121.0255820995
 21
-747.3049327863
 31
0.0
  0
LINE
  5
3B2
330
1F
100
AcDbEntity
  8
0
  6
Continuous
 62
     7
370
    15
100
AcDbLine
 10
-763.025616551
 20
-745.8049325404
 30
0.0
 11
-821.0256074315
 21
-745.8049325404
 31
0.0
  0
LINE
  5
3B3
330
1F
100
AcDbEntity
  8
0
  6
Continuous
 62
     7
370
    15
100
AcDbLine
 10
-763.025616551
 20
-747.3049327863
 30
0.0
 11
-821.0256074315
 21
-747.3049327863
 31
0.0
  0
LINE
  5
3B4
330
1F
100
AcDbEntity
  8
0
  6
Continuous
 62
     7
370
    15
100
AcDbLine
 10
-121.0255820995
 20
-766.8049331886
 30
0.0
 11
-63.0256135708
 21
-766.8049331886
 31
0.0
  0
LINE
  5
3B5
330
1F
100
AcDbEntity
  8
0
  6
Continuous
 62
     7
370
    15
100
AcDbLine
 10
-121.0255820995
 20
-765.3049329428
 30
0.0
 11
-63.0256135708
 21
-765.3049329428
 31
0.0
  0
LINE
  5
3B6
330
1F
100
AcDbEntity
  8
0
  6
Continuous
 62
     7
370
    15
100
AcDbLine
 10
-763.025616551
 20
-764.3366070596
 30
0.0
 11
-821.0256074315
 21
-764.3366070596
 31
0.0
  0
LINE
  5
3B7
330
1F
100
AcDbEntity
  8
0
  6
Continuous
 62
     7
370
    15
100
AcDbLine
 10
-763.05011406
 20
-748.3253615109
 30
0.0
 11
-763.025616551
 21
-748.3253615109
 31
0.0
  0
LINE
  5
3B8
330
1F
100
AcDbEntity
  8
0
  6
Continuous
 62
     7
370
    15
100
AcDbLine
 10
-821.0256074315
 20
-748.3253615109
 30
0.0
 11
-763.05011406
 21
-748.3253615109
 31
0.0
  0
LINE
  5
3B9
330
1F
100
AcDbEntity
  8
0
  6
Continuous
 62
     7
370
    15
100
AcDbLine
 10
-821.0256074315
 20
-765.3049329428
 30
0.0
 11
-763.025616551
 21
-765.3049329428
 31
0.0
  0
LINE
  5
3BA
330
1F
100
AcDbEntity
  8
0
  6
Continuous
 62
     7
370
    15
100
AcDbLine
 10
-63.0501110798
 20
-748.3253615109
 30
0.0
 11
-63.0256135708
 21
-748.3253615109
 31
0.0
  0
LINE
  5
3BB
330
1F
100
AcDbEntity
  8
0
  6
Continuous
 62
     7
370
    15
100
AcDbLine
 10
-121.0255820995
 20
-748.3253615109
 30
0.0
 11
-63.0501110798
 21
-748.3253615109
 31
0.0
  0
LINE
  5
3BC
330
1F
100
AcDbEntity
  8
0
  6
Continuous
 62
     7
370
    15
100
AcDbLine
 10
-63.0256135708
 20
-764.3366070596
 30
0.0
 11
-121.0255820995
 21
-764.3366070596
 31
0.0
  0
LINE
  5
3BD
330
1F
100
AcDbEntity
  8
0
  6
Continuous
 62
     7
370
    15
100
AcDbLine
 10
-121.0255820995
 20
-765.3049329428
 30
0.0
 11
-63.0256135708
 21
-765.3049329428
 31
0.0
  0
LINE
  5
3BE
330
1F
100
AcDbEntity
  8
0
  6
Continuous
 62
     7
370
    15
100
AcDbLine
 10
-107.0255835301
 20
-773.3049323914
 30
0.0
 11
-107.0255835301
 21
-779.3049333749
 31
0.0
  0
LINE
  5
3BF
330
1F
100
AcDbEntity
  8
0
  6
Continuous
 62
     7
370
    15
100
AcDbLine
 10
-77.0256121403
 20
-773.3049323914
 30
0.0
 11
-77.0256121403
 21
-779.3049333749
 31
0.0
  0
LINE
  5
3C0
330
1F
100
AcDbEntity
  8
0
  6
Continuous
 62
     7
370
    15
100
AcDbLine
 10
-107.0255835301
 20
-779.3049333749
 30
0.0
 11
-77.0256121403
 21
-779.3049333749
 31
0.0
  0
LINE
  5
3C1
330
1F
100
AcDbEntity
  8
0
  6
Continuous
 62
     7
370
    15
100
AcDbLine
 10
-107.0255835301
 20
-773.3049323914
 30
0.0
 11
-77.0256121403
 21
-773.3049323914
 31
0.0
  0
LINE
  5
3C2
330
1F
100
AcDbEntity
  8
0
  6
Continuous
 62
     7
370
    15
100
AcDbLine
 10
-807.025608862
 20
-773.3049323914
 30
0.0
 11
-807.025608862
 21
-779.3049333749
 31
0.0
  0
LINE
  5
3C3
330
1F
100
AcDbEntity
  8
0
  6
Continuous
 62
     7
370
    15
100
AcDbLine
 10
-807.025608862
 20
-773.3049323914
 30
0.0
 11
-777.0256076699
 21
-773.3049323914
 31
0.0
  0
LINE
  5
3C4
330
1F
100
AcDbEntity
  8
0
  6
Continuous
 62
     7
370
    15
100
AcDbLine
 10
-777.0256076699
 20
-773.3049323914
 30
0.0
 11
-777.0256076699
 21
-779.3049333749
 31
0.0
  0
LINE
  5
3C5
330
1F
100
AcDbEntity
  8
0
  6
Continuous
 62
     7
370
    15
100
AcDbLine
 10
-807.025608862
 20
-779.3049333749
 30
0.0
 11
-777.0256076699
 21
-779.3049333749
 31
0.0
  0
LINE
  5
3C6
330
1F
100
AcDbEntity
  8
0
  6
Continuous
 62
     7
370
    15
100
AcDbLine
 10
-777.0256076699
 20
-767.604932761
 30
0.0
 11
-807.025608862
 21
-767.604932761
 31
0.0
  0
LINE
  5
3C7
330
1F
100
AcDbEntity
  8
0
  6
Continuous
 62
     7
370
    15
100
AcDbLine
 10
-807.025608862
 20
-773.0049329011
 30
0.0
 11
-777.0256076699
 21
-773.0049329011
 31
0.0
  0
LINE
  5
3C8
330
1F
100
AcDbEntity
  8
0
  6
Continuous
 62
     7
370
    15
100
AcDbLine
 10
-806.7256112343
 20
-767.3049332706
 30
0.0
 11
-777.3256127483
 21
-767.3049332706
 31
0.0
  0
LINE
  5
3C9
330
1F
100
AcDbEntity
  8
0
  6
Continuous
 62
     7
370
    15
100
AcDbLine
 10
-77.0256121403
 20
-767.604932761
 30
0.0
 11
-107.0255835301
 21
-767.604932761
 31
0.0
  0
LINE
  5
3CA
330
1F
100
AcDbEntity
  8
0
  6
Continuous
 62
     7
370
    15
100
AcDbLine
 10
-107.0255835301
 20
-773.0049329011
 30
0.0
 11
-77.0256121403
 21
-773.0049329011
 31
0.0
  0
LINE
  5
3CB
330
1F
100
AcDbEntity
  8
0
  6
Continuous
 62
     7
370
    15
100
AcDbLine
 10
-106.7255933529
 20
-767.3049332706
 30
0.0
 11
-77.3256023174
 21
-767.3049332706
 31
0.0
  0
LINE
  5
3CC
330
1F
100
AcDbEntity
  8
0
  6
Continuous
 62
     8
370
    15
100
AcDbLine
 10
-812.1696908718
 20
-782.8481407968
 30
0.0
 11
-811.0256095177
 21
-782.8481407968
 31
0.0
  0
LINE
  5
3CD
330
1F
100
AcDbEntity
  8
0
  6
Continuous
 62
     8
370
    15
100
AcDbLine
 10
-841.0256107098
 20
-782.8481407968
 30
0.0
 11
-812.1696908718
 21
-782.8481407968
 31
0.0
  0
LINE
  5
3CE
330
1F
100
AcDbEntity
  8
0
  6
Continuous
 62
     8
370
    15
100
AcDbLine
 10
-811.0256095177
 20
-781.1309849975
 30
0.0
 11
-841.0256107098
 21
-781.1309849975
 31
0.0
  0
LINE
  5
3CF
330
1F
100
AcDbEntity
  8
0
  6
Continuous
 62
     8
370
    15
100
AcDbLine
 10
-811.0841859823
 20
-782.9895639924
 30
0.0
 11
-840.9670305198
 21
-782.9895639924
 31
0.0
  0
LINE
  5
3D0
330
1F
100
AcDbEntity
  8
0
  6
Continuous
 62
     8
370
    15
100
AcDbLine
 10
-839.0841868466
 20
-784.872405803
 30
0.0
 11
-812.9670296556
 21
-784.872405803
 31
0.0
  0
LINE
  5
3D1
330
1F
100
AcDbEntity
  8
0
  6
Continuous
 62
     8
370
    15
100
AcDbLine
 10
1359.8302404636
 20
-781.1309849975
 30
0.0
 11
1330.974439835
 21
-781.1309849975
 31
0.0
  0
LINE
  5
3D2
330
1F
100
AcDbEntity
  8
0
  6
Continuous
 62
     8
370
    15
100
AcDbLine
 10
1360.9744112247
 20
-781.1309849975
 30
0.0
 11
1359.8302404636
 21
-781.1309849975
 31
0.0
  0
LINE
  5
3D3
330
1F
100
AcDbEntity
  8
0
  6
Continuous
 62
     8
370
    15
100
AcDbLine
 10
1330.974439835
 20
-782.8481407968
 30
0.0
 11
1360.9744112247
 21
-782.8481407968
 31
0.0
  0
LINE
  5
3D4
330
1F
100
AcDbEntity
  8
0
  6
Continuous
 62
     8
370
    15
100
AcDbLine
 10
1359.7761194462
 20
-782.9895639924
 30
0.0
 11
1331.0328523868
 21
-782.9895639924
 31
0.0
  0
LINE
  5
3D5
330
1F
100
AcDbEntity
  8
0
  6
Continuous
 62
     8
370
    15
100
AcDbLine
 10
1360.9157602543
 20
-782.9895639924
 30
0.0
 11
1359.7761194462
 21
-782.9895639924
 31
0.0
  0
LINE
  5
3D6
330
1F
100
AcDbEntity
  8
0
  6
Continuous
 62
     8
370
    15
100
AcDbLine
 10
1358.0368559116
 20
-784.872405803
 30
0.0
 11
1359.0329687351
 21
-784.872405803
 31
0.0
  0
LINE
  5
3D7
330
1F
100
AcDbEntity
  8
0
  6
Continuous
 62
     8
370
    15
100
AcDbLine
 10
1332.9158823246
 20
-784.872405803
 30
0.0
 11
1358.0368559116
 21
-784.872405803
 31
0.0
  0
LINE
  5
3D8
330
1F
100
AcDbEntity
  8
0
  6
Continuous
 62
     8
370
    15
100
AcDbLine
 10
-77.0256121403
 20
-744.3877753002
 30
0.0
 11
-107.0255835301
 21
-744.3877753002
 31
0.0
  0
LINE
  5
3D9
330
1F
100
AcDbEntity
  8
0
  6
Continuous
 62
     8
370
    15
100
AcDbLine
 10
-106.9670517689
 20
-744.2463539673
 30
0.0
 11
-77.0842035061
 21
-744.2463539673
 31
0.0
  0
LINE
  5
3DA
330
1F
100
AcDbEntity
  8
0
  6
Continuous
 62
     8
370
    15
100
AcDbLine
 10
-107.0255835301
 20
-745.1049327982
 30
0.0
 11
-77.0256121403
 21
-745.1049327982
 31
0.0
  0
LINE
  5
3DB
330
1F
100
AcDbEntity
  8
0
  6
Continuous
 62
     8
370
    15
100
AcDbLine
 10
-78.9670546299
 20
-742.3635112254
 30
0.0
 11
-105.0842006451
 21
-742.3635112254
 31
0.0
  0
LINE
  5
3DC
330
1F
100
AcDbEntity
  8
0
  6
Continuous
 62
     8
370
    15
100
AcDbLine
 10
-777.0256076699
 20
-744.3877753002
 30
0.0
 11
-807.025608862
 21
-744.3877753002
 31
0.0
  0
LINE
  5
3DD
330
1F
100
AcDbEntity
  8
0
  6
Continuous
 62
     8
370
    15
100
AcDbLine
 10
-806.9670323974
 20
-744.2463539673
 30
0.0
 11
-777.0841915852
 21
-744.2463539673
 31
0.0
  0
LINE
  5
3DE
330
1F
100
AcDbEntity
  8
0
  6
Continuous
 62
     8
370
    15
100
AcDbLine
 10
-807.025608862
 20
-745.1049327982
 30
0.0
 11
-777.0256076699
 21
-745.1049327982
 31
0.0
  0
LINE
  5
3DF
330
1F
100
AcDbEntity
  8
0
  6
Continuous
 62
     8
370
    15
100
AcDbLine
 10
-778.9670278078
 20
-742.3635112254
 30
0.0
 11
-805.0841887241
 21
-742.3635112254
 31
0.0
  0
ENDSEC
  0
SECTION
  2
OBJECTS
  0
DICTIONARY
  5
C
330
0
100
AcDbDictionary
281
     1
  3
ACAD_GROUP
350
D
  3
ACAD_LAYOUT
350
1A
  3
ACAD_MLEADERSTYLE
350
3E2
  3
ACAD_MLINESTYLE
350
17
  3
ACAD_PLOTSETTINGS
350
19
  3
ACAD_PLOTSTYLENAME
350
E
  3
ACAD_VISUALSTYLE
350
2A
  3
AcDbVariableDictionary
350
3E0
  0
DICTIONARY
  5
D
102
{ACAD_REACTORS
330
C
102
}
330
C
100
AcDbDictionary
281
     1
  0
DICTIONARY
  5
1A
102
{ACAD_REACTORS
330
C
102
}
330
C
100
AcDbDictionary
281
     1
  3
Layout1
350
1E
  3
Layout2
350
26
  3
Model
350
22
  0
DICTIONARY
  5
3E2
102
{ACAD_REACTORS
330
C
102
}
330
C
100
AcDbDictionary
281
     1
  0
DICTIONARY
  5
17
102
{ACAD_REACTORS
330
C
102
}
330
C
100
AcDbDictionary
281
     1
  3
Standard
350
18
  0
DICTIONARY
  5
19
102
{ACAD_REACTORS
330
C
102
}
330
C
100
AcDbDictionary
281
     1
  0
ACDBDICTIONARYWDFLT
  5
E
102
{ACAD_REACTORS
330
C
102
}
330
C
100
AcDbDictionary
281
     1
  3
Normal
350
F
100
AcDbDictionaryWithDefault
340
F
  0
DICTIONARY
  5
2A
102
{ACAD_REACTORS
330
C
102
}
330
C
100
AcDbDictionary
281
     1
  3
2dWireframe
350
2F
  3
3D Hidden
350
31
  3
3dWireframe
350
30
  3
Basic
350
32
  3
Brighten
350
36
  3
ColorChange
350
3A
  3
Conceptual
350
34
  3
Dim
350
35
  3
Facepattern
350
39
  3
Flat
350
2B
  3
FlatWithEdges
350
2C
  3
Gouraud
350
2D
  3
GouraudWithEdges
350
2E
  3
Linepattern
350
38
  3
Realistic
350
33
  3
Thicken
350
37
  0
DICTIONARY
  5
3E0
102
{ACAD_REACTORS
330
C
102
}
330
C
100
AcDbDictionary
281
     1
  3
DIMASSOC
350
3E5
  3
HIDETEXT
350
3E6
  3
PSOLHEIGHT
350
3E4
  3
PSOLWIDTH
350
3E3
  0
LAYOUT
  5
1E
102
{ACAD_REACTORS
330
1A
102
}
330
1A
100
AcDbPlotSettings
  1

  2
none_device
  4

  6

 40
0.0
 41
0.0
 42
0.0
 43
0.0
 44
0.0
 45
0.0
 46
0.0
 47
0.0
 48
0.0
 49
0.0
140
0.0
141
0.0
142
1.0
143
1.0
 70
   688
 72
     0
 73
     0
 74
     5
  7

 75
    16
147
1.0
148
0.0
149
0.0
100
AcDbLayout
  1
Layout1
 70
     1
 71
     1
 10
0.0
 20
0.0
 11
420.0
 21
297.0
 12
0.0
 22
0.0
 32
0.0
 14
1.0000000000E+20
 24
1.0000000000E+20
 34
1.0000000000E+20
 15
-1.0000000000E+20
 25
-1.0000000000E+20
 35
-1.0000000000E+20
146
0.0
 13
0.0
 23
0.0
 33
0.0
 16
1.0
 26
0.0
 36
0.0
 17
0.0
 27
1.0
 37
0.0
 76
     0
330
1B
  0
LAYOUT
  5
26
102
{ACAD_REACTORS
330
1A
102
}
330
1A
100
AcDbPlotSettings
  1

  2
none_device
  4

  6

 40
0.0
 41
0.0
 42
0.0
 43
0.0
 44
0.0
 45
0.0
 46
0.0
 47
0.0
 48
0.0
 49
0.0
140
0.0
141
0.0
142
1.0
143
1.0
 70
   688
 72
     0
 73
     0
 74
     5
  7

 75
    16
147
1.0
148
0.0
149
0.0
100
AcDbLayout
  1
Layout2
 70
     1
 71
     2
 10
0.0
 20
0.0
 11
0.0
 21
0.0
 12
0.0
 22
0.0
 32
0.0
 14
0.0
 24
0.0
 34
0.0
 15
0.0
 25
0.0
 35
0.0
146
0.0
 13
0.0
 23
0.0
 33
0.0
 16
1.0
 26
0.0
 36
0.0
 17
0.0
 27
1.0
 37
0.0
 76
     0
330
23
  0
LAYOUT
  5
22
102
{ACAD_REACTORS
330
1A
102
}
330
1A
100
AcDbPlotSettings
  1

  2
none_device
  4

  6

 40
0.0
 41
0.0
 42
0.0
 43
0.0
 44
0.0
 45
0.0
 46
0.0
 47
0.0
 48
0.0
 49
0.0
140
0.0
141
0.0
142
1.0
143
1.0
 70
  1712
 72
     0
 73
     0
 74
     0
  7

 75
     0
147
1.0
148
0.0
149
0.0
100
AcDbLayout
  1
Model
 70
     1
 71
     0
 10
0.0
 20
0.0
 11
841.0
 21
594.0
 12
0.0
 22
0.0
 32
0.0
 14
0.0
 24
0.0
 34
0.0
 15
841.0
 25
594.0
 35
0.0
146
0.0
 13
0.0
 23
0.0
 33
0.0
 16
1.0
 26
0.0
 36
0.0
 17
0.0
 27
1.0
 37
0.0
 76
     0
330
1F
331
29
  0
MLINESTYLE
  5
18
102
{ACAD_REACTORS
330
17
102
}
330
17
100
AcDbMlineStyle
  2
Standard
 70
     0
  3

 62
   256
 51
90.0
 52
90.0
 71
     2
 49
0.5
 62
   256
  6
BYLAYER
 49
-0.5
 62
   256
  6
BYLAYER
  0
ACDBPLACEHOLDER
  5
F
102
{ACAD_REACTORS
330
E
102
}
330
E
  0
VISUALSTYLE
  5
2F
102
{ACAD_REACTORS
330
2A
102
}
330
2A
100
AcDbVisualStyle
  2
2dWireframe
 70
     4
 71
     0
 72
     2
 73
     0
 90
        0
 40
-0.6
 41
-30.0
 62
     5
 63
     7
 74
     1
 91
        4
 64
     7
 65
   257
 75
     1
175
     1
 42
1.0
 92
        0
 66
   257
 43
1.0
 76
     1
 77
     6
 78
     2
 67
     7
 79
     5
170
     0
171
     0
290
     0
174
     0
 93
        1
 44
0.0
173
     0
291
     0
 45
0.0
1001
ACAD
1000
AcDbSavedByObjectVersion
1070
     0
  0
VISUALSTYLE
  5
31
102
{ACAD_REACTORS
330
2A
102
}
330
2A
100
AcDbVisualStyle
  2
3D Hidden
 70
     6
 71
     1
 72
     2
 73
     2
 90
        0
 40
-0.6
 41
-30.0
 62
     5
 63
     7
 74
     2
 91
        2
 64
     7
 65
   257
 75
     2
175
     1
 42
40.0
 92
        0
 66
   257
 43
1.0
 76
     1
 77
     6
 78
     2
 67
     7
 79
     3
170
     0
171
     0
290
     0
174
     0
 93
        1
 44
0.0
173
     0
291
     0
 45
0.0
1001
ACAD
1000
AcDbSavedByObjectVersion
1070
     0
  0
VISUALSTYLE
  5
30
102
{ACAD_REACTORS
330
2A
102
}
330
2A
100
AcDbVisualStyle
  2
3dWireframe
 70
     5
 71
     0
 72
     2
 73
     0
 90
        0
 40
-0.6
 41
-30.0
 62
     5
 63
     7
 74
     1
 91
        4
 64
     7
 65
   257
 75
     1
175
     1
 42
1.0
 92
        0
 66
   257
 43
1.0
 76
     1
 77
     6
 78
     2
 67
     7
 79
     5
170
     0
171
     0
290
     0
174
     0
 93
        1
 44
0.0
173
     0
291
     0
 45
0.0
1001
ACAD
1000
AcDbSavedByObjectVersion
1070
     0
  0
VISUALSTYLE
  5
32
102
{ACAD_REACTORS
330
2A
102
}
330
2A
100
AcDbVisualStyle
  2
Basic
 70
     7
 71
     1
 72
     0
 73
     1
 90
        0
 40
-0.6
 41
-30.0
 62
     5
 63
     7
 74
     0
 91
        4
 64
     7
 65
   257
 75
     1
175
     1
 42
1.0
 92
        8
 66
     7
 43
1.0
 76
     1
 77
     6
 78
     2
 67
     7
 79
     5
170
     0
171
     0
290
     0
174
     0
 93
        1
 44
0.0
173
     0
291
     1
 45
0.0
1001
ACAD
1000
AcDbSavedByObjectVersion
1070
     0
  0
VISUALSTYLE
  5
36
102
{ACAD_REACTORS
330
2A
102
}
330
2A
100
AcDbVisualStyle
  2
Brighten
 70
    12
 71
     2
 72
     2
 73
     0
 90
        0
 40
-0.6
 41
-30.0
 62
     5
 63
     7
 74
     1
 91
        4
 64
     7
 65
   257
 75
     1
175
     1
 42
1.0
 92
        8
 66
     7
 43
1.0
 76
     1
 77
     6
 78
     2
 67
     7
 79
     5
170
     0
171
     0
290
     0
174
     0
 93
        1
 44
50.0
173
     0
291
     1
 45
0.0
1001
ACAD
1000
AcDbSavedByObjectVersion
1070
     0
  0
VISUALSTYLE
  5
3A
102
{ACAD_REACTORS
330
2A
102
}
330
2A
100
AcDbVisualStyle
  2
ColorChange
 70
    16
 71
     2
 72
     2
 73
     3
 90
        0
 40
-0.6
 41
-30.0
 62
     5
 63
     8
 74
     1
 91
        4
 64
     7
 65
   257
 75
     1
175
     1
 42
1.0
 92
        8
 66
     8
 43
1.0
 76
     1
 77
     6
 78
     2
 67
     7
 79
     5
170
     0
171
     0
290
     0
174
     0
 93
        1
 44
0.0
173
     0
291
     1
 45
0.0
1001
ACAD
1000
AcDbSavedByObjectVersion
1070
     0
  0
VISUALSTYLE
  5
34
102
{ACAD_REACTORS
330
2A
102
}
330
2A
100
AcDbVisualStyle
  2
Conceptual
 70
     9
 71
     3
 72
     2
 73
     0
 90
        0
 40
-0.6
 41
-30.0
 62
     5
 63
     7
 74
     2
 91
        2
 64
     7
 65
   257
 75
     1
175
     1
 42
40.0
 92
        8
 66
     7
 43
1.0
 76
     1
 77
     6
 78
     2
 67
     7
 79
     3
170
     0
171
     0
290
     0
174
     0
 93
        1
 44
0.0
173
     0
291
     0
 45
0.0
1001
ACAD
1000
AcDbSavedByObjectVersion
1070
     0
  0
VISUALSTYLE
  5
35
102
{ACAD_REACTORS
330
2A
102
}
330
2A
100
AcDbVisualStyle
  2
Dim
 70
    11
 71
     2
 72
     2
 73
     0
 90
        0
 40
-0.6
 41
-30.0
 62
     5
 63
     7
 74
     1
 91
        4
 64
     7
 65
   257
 75
     1
175
     1
 42
1.0
 92
        8
 66
     7
 43
1.0
 76
     1
 77
     6
 78
     2
 67
     7
 79
     5
170
     0
171
     0
290
     0
174
     0
 93
        1
 44
-50.0
173
     0
291
     1
 45
0.0
1001
ACAD
1000
AcDbSavedByObjectVersion
1070
     0
  0
VISUALSTYLE
  5
39
102
{ACAD_REACTORS
330
2A
102
}
330
2A
100
AcDbVisualStyle
  2
Facepattern
 70
    15
 71
     2
 72
     2
 73
     0
 90
        0
 40
-0.6
 41
-30.0
 62
     5
 63
     7
 74
     1
 91
        4
 64
     7
 65
   257
 75
     1
175
     1
 42
1.0
 92
        8
 66
     7
 43
1.0
 76
     1
 77
     6
 78
     2
 67
     7
 79
     5
170
     0
171
     0
290
     0
174
     0
 93
        1
 44
0.0
173
     0
291
     1
 45
0.0
1001
ACAD
1000
AcDbSavedByObjectVersion
1070
     0
  0
VISUALSTYLE
  5
2B
102
{ACAD_REACTORS
330
2A
102
}
330
2A
100
AcDbVisualStyle
  2
Flat
 70
     0
 71
     2
 72
     1
 73
     1
 90
        2
 40
-0.6
 41
30.0
 62
     5
 63
     7
 74
     0
 91
        4
 64
     7
 65
   257
 75
     1
175
     1
 42
1.0
 92
        8
 66
     7
 43
1.0
 76
     1
 77
     6
 78
     2
 67
     7
 79
     5
170
     0
171
     0
290
     0
174
     0
 93
       13
 44
0.0
173
     0
291
     1
 45
0.0
1001
ACAD
1000
AcDbSavedByObjectVersion
1070
     0
  0
VISUALSTYLE
  5
2C
102
{ACAD_REACTORS
330
2A
102
}
330
2A
100
AcDbVisualStyle
  2
FlatWithEdges
 70
     1
 71
     2
 72
     1
 73
     1
 90
        2
 40
-0.6
 41
30.0
 62
     5
 63
     7
 74
     1
 91
        4
 64
     7
 65
   257
 75
     1
175
     1
 42
1.0
 92
        0
 66
   257
 43
1.0
 76
     1
 77
     6
 78
     2
 67
     7
 79
     5
170
     0
171
     0
290
     0
174
     0
 93
       13
 44
0.0
173
     0
291
     1
 45
0.0
1001
ACAD
1000
AcDbSavedByObjectVersion
1070
     0
  0
VISUALSTYLE
  5
2D
102
{ACAD_REACTORS
330
2A
102
}
330
2A
100
AcDbVisualStyle
  2
Gouraud
 70
     2
 71
     2
 72
     2
 73
     1
 90
        2
 40
-0.6
 41
30.0
 62
     5
 63
     7
 74
     0
 91
        4
 64
     7
 65
   257
 75
     1
175
     1
 42
1.0
 92
        0
 66
     7
 43
1.0
 76
     1
 77
     6
 78
     2
 67
     7
 79
     5
170
     0
171
     0
290
     0
174
     0
 93
       13
 44
0.0
173
     0
291
     1
 45
0.0
1001
ACAD
1000
AcDbSavedByObjectVersion
1070
     0
  0
VISUALSTYLE
  5
2E
102
{ACAD_REACTORS
330
2A
102
}
330
2A
100
AcDbVisualStyle
  2
GouraudWithEdges
 70
     3
 71
     2
 72
     2
 73
     1
 90
        2
 40
-0.6
 41
30.0
 62
     5
 63
     7
 74
     1
 91
        4
 64
     7
 65
   257
 75
     1
175
     1
 42
1.0
 92
        0
 66
   257
 43
1.0
 76
     1
 77
     6
 78
     2
 67
     7
 79
     5
170
     0
171
     0
290
     0
174
     0
 93
       13
 44
0.0
173
     0
291
     1
 45
0.0
1001
ACAD
1000
AcDbSavedByObjectVersion
1070
     0
  0
VISUALSTYLE
  5
38
102
{ACAD_REACTORS
330
2A
102
}
330
2A
100
AcDbVisualStyle
  2
Linepattern
 70
    14
 71
     2
 72
     2
 73
     0
 90
        0
 40
-0.6
 41
-30.0
 62
     5
 63
     7
 74
     1
 91
        4
 64
     7
 65
   257
 75
     7
175
     7
 42
1.0
 92
        8
 66
     7
 43
1.0
 76
     1
 77
     6
 78
     2
 67
     7
 79
     5
170
     0
171
     0
290
     0
174
     0
 93
        1
 44
0.0
173
     0
291
     1
 45
0.0
1001
ACAD
1000
AcDbSavedByObjectVersion
1070
     0
  0
VISUALSTYLE
  5
33
102
{ACAD_REACTORS
330
2A
102
}
330
2A
100
AcDbVisualStyle
  2
Realistic
 70
     8
 71
     2
 72
     2
 73
     0
 90
        0
 40
-0.6
 41
-30.0
 62
     5
 63
     7
 74
     1
 91
        0
 64
     7
 65
   257
 75
     1
175
     1
 42
1.0
 92
        8
 66
     8
 43
1.0
 76
     1
 77
     6
 78
     2
 67
     7
 79
     5
170
     0
171
     0
290
     0
174
     0
 93
       13
 44
0.0
173
     0
291
     0
 45
0.0
1001
ACAD
1000
AcDbSavedByObjectVersion
1070
     0
  0
VISUALSTYLE
  5
37
102
{ACAD_REACTORS
330
2A
102
}
330
2A
100
AcDbVisualStyle
  2
Thicken
 70
    13
 71
     2
 72
     2
 73
     0
 90
        0
 40
-0.6
 41
-30.0
 62
     5
 63
     7
 74
     1
 91
        4
 64
     7
 65
   257
 75
     1
175
     1
 42
1.0
 92
       12
 66
     7
 43
1.0
 76
     1
 77
     6
 78
     2
 67
     7
 79
     5
170
     0
171
     0
290
     0
174
     0
 93
        1
 44
0.0
173
     0
291
     1
 45
0.0
1001
ACAD
1000
AcDbSavedByObjectVersion
1070
     0
  0
DICTIONARYVAR
  5
3E5
102
{ACAD_REACTORS
330
3E0
102
}
330
3E0
100
DictionaryVariables
280
     0
  1
2
  0
DICTIONARYVAR
  5
3E6
102
{ACAD_REACTORS
330
3E0
102
}
330
3E0
100
DictionaryVariables
280
     0
  1
1
  0
DICTIONARYVAR
  5
3E4
102
{ACAD_REACTORS
330
3E0
102
}
330
3E0
100
DictionaryVariables
280
     0
  1
80.000000
  0
DICTIONARYVAR
  5
3E3
102
{ACAD_REACTORS
330
3E0
102
}
330
3E0
100
DictionaryVariables
280
     0
  1
5.000000
  0
ENDSEC
  0
EOF
